PrimaNota.ru - самый крупный в мире бесплатный архив песенных текстов, аккордов, табулатур и нот


Пёрселл Генри - Rondo - бас-таба, видео

Регистрация Запомнить меня
Войти через:  Facebook Google Twitter Vk Yandex Mail.ru

Пёрселл Генри - Rondo - бас-таба, видео

Печатать
Просмотров: 249
                                    RONDO
                             Henry Purcell (1659 - 1695)

This is how I play it, it sounds pretty good. It's played fast. Enjoy!
tabbed by: stephen (koop) kupfer -peace- 
e-mail: doc.phunk@gmail.com

G|--------- -0-2-3-5-3-2-0--|
D|-------0~---------------4~|
A|----1~--------------------|
E|--3~----------------------|

G|-7-0-3-7-3-0-9~-5---2-5-2|---7~-3---0-3-0---5~------|
D|------------------3------|-3------1-------1---------|
A|-------------------------|--------------------------|
E|-------------------------|--------------------------|


G|-2-----2-----3~-2-3-2-0--|
D|---0-4---4-0------------4|
A|-------------------------|
E|-------------------------|

G|-3-2-3-2-0---0---0-2-0-0~|	Fine
D|-----------0---4---------|
A|-------------------------|
E|-------------------------|

G|---------3-5-7-9-7-5-3-2~-||-7-9-7-5-7-5-3-----------|
D|---0~-3~------------------||--------------------0-1-0|
A|-1~-----------------------||----------------1-3------|
E|--------------------------||-------------------------|


G|---------3-2-0-2-0---0--||---5-3-2-3-2-0-2-0-3-7-5|
D|---0---------------3---3||-1----------------------|
A|-3---3-1----------------||------------------------|
E|------------------------||------------------------|


G|-3-5-3-2-3-2-0-5---3-2-3|
D|-----------------3------|
A|------------------------|
E|------------------------|

G|-5-3-3~------------------|	D.C. al Fine
D|-------------------------|
A|-------------------------|
E|-------------------------|
Добавлено: 22.07.2012
Другие материалы по этой песне:

Страница создана 09.03.2012
http://primanota.ru/henry-purcell/rondo-chords.htm
Привет, Гость.
Предлагаем пройти революционный курс по гитаре.
Подарок от PrimaNota.Ru, забирай!