PrimaNota.ru - самый крупный в мире бесплатный архив песенных текстов, аккордов, табулатур и нот


Henry Paul Band - Grey Ghost - таба, видео

Регистрация Запомнить меня
Войти через:  Facebook Google Twitter Vk Yandex Mail.ru

Henry Paul Band - Grey Ghost - таба, видео

Печатать
Просмотров: 77
Уроки эстрадного вокала в Санкт-Петербурге
-----------------------------------------------------------------------------
1.                       Grey Ghost- The Henry Paul Band
2.                               Grey Ghost-1978
3.                 Words and Music by Henry Paul and Barry Rapp
-----------------------------------------------------------------------------
Tabbed by: Duane Baldwin
E-mail: duaneandjulie@gmail.com

Tuning: Standard

Guitar I (Over Driven Tone)

Intro

e|--------------------------------|-------------------------|
B|--9hbr---7---9---7--------------|-------------------------|
G|---------------------9---6---7--|--9p7\6---7---6----------|
D|--------------------------------|------------------7---9--|
A|--------------------------------|-------------------------|
E|--------------------------------|-------------------------|

e|--------------------------------|-------------------------|
B|--9hbr---7---9---7--------------|-------------------------|
G|---------------------9---6---7--|--9p7\6---7---6----------|
D|--------------------------------|------------------7---9--|
A|--------------------------------|-------------------------|
E|--------------------------------|-------------------------|

Intro Solo

e|--10------------------10---12---12b--|-12pb--12pb--12pbr--10---14--10h14p10|
B|--10---12---12---12------------------|-------------------------------------|
G|-------------------------------------|-------------------------------------|
D|-------------------------------------|-------------------------------------|
A|-------------------------------------|-------------------------------------|
E|-------------------------------------|-------------------------------------|

e|----------------------10---9---------------------|-----------------|
B|--12---10---12---12------------12---10-----------|-----------------|
G|-----------------------------------------11---9--|--7---6----------|
D|-------------------------------------------------|----------7---9--|
A|-------------------------------------------------|-----------------|
E|-------------------------------------------------|-----------------|

1st Verse

e|-----------------------------------------|
B|--7---x---7---7---7---7---x---7---7---7--|
G|--7---x---7---7---7---7---x---7---7---7--|
D|--9---x---9---9---9---9---x---9---9---9--|
A|--9---x---9---9---9---9---x---9---9---9--|
E|--7-------7---7---7---7-------7---7---7--|

e|--2---x---2---2---2---2---x---2---2---2--|
B|--2---x---2---2---2---2---x---2---2---2--|
G|--2---x---2---2---2---2---x---2---2---2--|
D|--4---x---4---4---4---4---x---4---4---4--|
A|--4---x---4---4---4---4---x---4---4---4--|
E|--2---x---2---2---2---2---x---2---2---2--|

e|------x----------------------------------|
B|--3---x---3---3---3----------------------|
G|--4---x---4---4---4---6---x---6---6---6--|
D|--5---x---5---5---5---7---x---7---7---7--|
A|--5---x---5---5---5---7---x---7---7---7--|
E|--3---x---3---3---3---5-------5---5---5--|

e|-----------------------------------------|
B|-----------------------------------------|
G|--7---x---7---7---7---7---x---7---7---7--|
D|--7---x---7---7---7---7---x---7---7---7--|
A|--5---x---5---5---5---5---x---5---5---5--|
E|-----------------------------------------|

e|-----------------------------------------|
B|--7---x---7---7---7---7---x---7---7---7--|
G|--7---x---7---7---7---7---x---7---7---7--|
D|--9---x---9---9---9---9---x---9---9---9--|
A|--9---x---9---9---9---9---x---9---9---9--|
E|--7-------7---7---7---7-------7---7---7--|

e|--2---x---2---2---2---2---x---2---2---2--|
B|--2---x---2---2---2---2---x---2---2---2--|
G|--2---x---2---2---2---2---x---2---2---2--|
D|--4---x---4---4---4---4---x---4---4---4--|
A|--4---x---4---4---4---4---x---4---4---4--|
E|--2---x---2---2---2---2---x---2---2---2--|

e|------x----------------------------------|-------------------------|
B|--3---x---3---3---3----------------------|-------------------------|
G|--4---x---4---4---4---6---x---6---6---6--|--7---x---7---7---7---7--|
D|--5---x---5---5---5---7---x---7---7---7--|--7---x---7---7---7---7--|
A|--5---x---5---5---5---7---x---7---7---7--|--5---x---5---5---5---5--|
E|--3---x---3---3---3---5-------5---5---5--|-------------------------|

1st Chorus

e|--5-----------5-----------3-----------3----------|
B|--6---------------6-------3---------------3------|
G|--7-------7-----------7---4-------4-----------4--|
D|--7---7-------------------5---5------------------|
A|--5-----------------------5----------------------|
E|--------------------------3----------------------|

e|--0-----------0--------------------------------|
B|--1---------------1-------0h1-----------1------|
G|--2-------2-----------2-------------2---2------|
D|--2---2-------------------------2-------2------|
A|--0-------------------------------------0------|
E|--------------------------------------------3--|

e|--1-----------1---------------3-----------3--------------|
B|--1---------------1-----------3---------------3----------|
G|--2-------2-----------2-------4-------4-----------4------|
D|--3---3-------------------3---5---5-------------------5--|
A|--3---------------------------5--------------------------|
E|--1---------------------------3--------------------------|

e|-----------------------|------3-----------3--------------|
B|-----------------------|------3-------3-------3----------|
G|--------------------5--|------4---4---------------4------|
D|------0---2---5/7------|--7---5-----------------------5--|
A|--3--------------------|------5--------------------------|
E|-----------------------|------3--------------------------|

e|--------------0------------------------|
B|------------------1-------0h1---1---0--|
G|----------2-----------2---------2---0--|
D|------2-------------------------2---0--|
A|--0-----------------------------0------|
E|---------------------------------------|

e|--1-----------1---------------3-----------3--------------|
B|--1---------------1-----------3---------------3----------|
G|--2-------2-----------2-------4-------4-----------4------|
D|--3---3-------------------3---5---5-------------------5--|
A|--3---------------------------5--------------------------|
E|--1---------------------------3--------------------------|

e|-------------------------|
B|-------------------------|
G|--7---7---7---7---7---7--|
D|--7---7---7---7---7---7--|
A|--5---5---5---5---5---5--|
E|-------------------------|

2nd Verse

e|-----------------------------------------|
B|--7---x---7---7---7---7---x---7---7---7--|
G|--7---x---7---7---7---7---x---7---7---7--|
D|--9---x---9---9---9---9---x---9---9---9--|
A|--9---x---9---9---9---9---x---9---9---9--|
E|--7-------7---7---7---7-------7---7---7--|

e|--2---x---2---2---2---2---x---2---2---2--|
B|--2---x---2---2---2---2---x---2---2---2--|
G|--2---x---2---2---2---2---x---2---2---2--|
D|--4---x---4---4---4---4---x---4---4---4--|
A|--4---x---4---4---4---4---x---4---4---4--|
E|--2---x---2---2---2---2---x---2---2---2--|

e|------x----------------------------------|
B|--3---x---3---3---3----------------------|
G|--4---x---4---4---4---6---x---6---6---6--|
D|--5---x---5---5---5---7---x---7---7---7--|
A|--5---x---5---5---5---7---x---7---7---7--|
E|--3---x---3---3---3---5-------5---5---5--|

e|-----------------------------------------|
B|-----------------------------------------|
G|--7---x---7---7---7---7---x---7---7---7--|
D|--7---x---7---7---7---7---x---7---7---7--|
A|--5---x---5---5---5---5---x---5---5---5--|
E|-----------------------------------------|

e|-----------------------------------------|
B|--7---x---7---7---7---7---x---7---7---7--|
G|--7---x---7---7---7---7---x---7---7---7--|
D|--9---x---9---9---9---9---x---9---9---9--|
A|--9---x---9---9---9---9---x---9---9---9--|
E|--7-------7---7---7---7-------7---7---7--|

e|--2---x---2---2---2---2---x---2---2---2--|
B|--2---x---2---2---2---2---x---2---2---2--|
G|--2---x---2---2---2---2---x---2---2---2--|
D|--4---x---4---4---4---4---x---4---4---4--|
A|--4---x---4---4---4---4---x---4---4---4--|
E|--2---x---2---2---2---2---x---2---2---2--|

e|------x----------------------------------|-------------------------|
B|--3---x---3---3---3----------------------|-------------------------|
G|--4---x---4---4---4---6---x---6---6---6--|--7---x---7---7---7---7--|
D|--5---x---5---5---5---7---x---7---7---7--|--7---x---7---7---7---7--|
A|--5---x---5---5---5---7---x---7---7---7--|--5---x---5---5---5---5--|
E|--3---x---3---3---3---5-------5---5---5--|-------------------------|

2nd  Chorus

e|--5-----------5-----------3-----------3----------|
B|--6---------------6-------3---------------3------|
G|--7-------7-----------7---4-------4-----------4--|
D|--7---7-------------------5---5------------------|
A|--5-----------------------5----------------------|
E|--------------------------3----------------------|

e|--0-----------0--------------------------------|
B|--1---------------1-------0h1-----------1------|
G|--2-------2-----------2-------------2---2------|
D|--2---2-------------------------2-------2------|
A|--0-------------------------------------0------|
E|--------------------------------------------3--|

e|--1-----------1---------------3-----------3--------------|
B|--1---------------1-----------3---------------3----------|
G|--2-------2-----------2-------4-------4-----------4------|
D|--3---3-------------------3---5---5-------------------5--|
A|--3---------------------------5--------------------------|
E|--1---------------------------3--------------------------|

e|-----------------------|------3-----------3--------------|
B|-----------------------|------3-------3-------3----------|
G|--------------------5--|------4---4---------------4------|
D|------0---2---5/7------|--7---5-----------------------5--|
A|--3--------------------|------5--------------------------|
E|-----------------------|------3--------------------------|

e|--------------0------------------------|
B|------------------1-------0h1---1---0--|
G|----------2-----------2---------2---0--|
D|------2-------------------------2---0--|
A|--0-----------------------------0------|
E|---------------------------------------|

e|--1-----------1---------------3-----------3--------------|
B|--1---------------1-----------3---------------3----------|
G|--2-------2-----------2-------4-------4-----------4------|
D|--3---3-------------------3---5---5-------------------5--|
A|--3---------------------------5--------------------------|
E|--1---------------------------3--------------------------|

e|-------------------------|
B|-------------------------|
G|--7---7---7---7---7---7--|
D|--7---7---7---7---7---7--|
A|--5---5---5---5---5---5--|
E|-------------------------|

1st Solo

e|-----------------------------------------|
B|--7---x---7---7---7---7---x---7---7---7--|
G|--7---x---7---7---7---7---x---7---7---7--|
D|--9---x---9---9---9---9---x---9---9---9--|
A|--9---x---9---9---9---9---x---9---9---9--|
E|--7-------7---7---7---7-------7---7---7--|

e|--2---x---2---2---2---2---x---2---2---2--|
B|--2---x---2---2---2---2---x---2---2---2--|
G|--2---x---2---2---2---2---x---2---2---2--|
D|--4---x---4---4---4---4---x---4---4---4--|
A|--4---x---4---4---4---4---x---4---4---4--|
E|--2---x---2---2---2---2---x---2---2---2--|

e|------x----------------------------------|
B|--3---x---3---3---3----------------------|
G|--4---x---4---4---4---6---x---6---6---6--|
D|--5---x---5---5---5---7---x---7---7---7--|
A|--5---x---5---5---5---7---x---7---7---7--|
E|--3---x---3---3---3---5-------5---5---5--|

e|-----------------------------------------|
B|-----------------------------------------|
G|--7---x---7---7---7---7---x---7---7---7--|
D|--7---x---7---7---7---7---x---7---7---7--|
A|--5---x---5---5---5---5---x---5---5---5--|
E|-----------------------------------------|

2nd Solo

  Volume swells for opening two measures
e|--14---10---12---9---10---7--|--9--------7-------------------|
B|-----------------------------|------10-------7---10-------7--|
G|-----------------------------|------------------------9------|
D|-----------------------------|-------------------------------|
A|-----------------------------|-------------------------------|
E|-----------------------------|-------------------------------|

e|----------------------------------------------|--10---9---7----------------|
B|--8p7-----------------------------------------|---------------10---8---7---|
G|--------9---7-------10b---9b---7-------7---7--|---------------------------9|
D|----------------9------------------9----------|----------------------------|
A|----------------------------------------------|----------------------------|
E|----------------------------------------------|----------------------------|

3rd Verse

e|---------------------------------|--2---x---2---2---2---2---x---2---2---2--|
B|------7---7---7---x---7---7---7--|--2---x---2---2---2---2---x---2---2---2--|
G|--7---7---7---7---x---7---7---7--|--2---x---2---2---2---2---x---2---2---2--|
D|------9---9---9---x---9---9---9--|--4---x---4---4---4---4---x---4---4---4--|
A|------9---9---9---x---9---9---9--|--4---x---4---4---4---4---x---4---4---4--|
E|------7---7---7-------7---7---7--|--2---x---2---2---2---2---x---2---2---2--|

e|------x----------------------------------|
B|--3---x---3---3---3----------------------|
G|--4---x---4---4---4---6---x---6---6---6--|
D|--5---x---5---5---5---7---x---7---7---7--|
A|--5---x---5---5---5---7---x---7---7---7--|
E|--3---x---3---3---3---5-------5---5---5--|

e|--------------5---3---2---3p2-------2---0------|
B|--------------------------------3-----------3--|
G|--7---x---7------------------------------------|
D|--7---x---7------------------------------------|
A|--5---x---5------------------------------------|
E|-----------------------------------------------|

e|-----------------------------------------|
B|--7---x---7---7---7---7---x---7---7---7--|
G|--7---x---7---7---7---7---x---7---7---7--|
D|--9---x---9---9---9---9---x---9---9---9--|
A|--9---x---9---9---9---9---x---9---9---9--|
E|--7-------7---7---7---7-------7---7---7--|

e|--2---x---2---2---2---2---x---2---2---2--|
B|--2---x---2---2---2---2---x---2---2---2--|
G|--2---x---2---2---2---2---x---2---2---2--|
D|--4---x---4---4---4---4---x---4---4---4--|
A|--4---x---4---4---4---4---x---4---4---4--|
E|--2---x---2---2---2---2---x---2---2---2--|

e|------x----------------------------------|--2---2h3p2-------0---0h2--|
B|--3---x---3---3---3----------------------|--3-----------3-------3----|
G|--4---x---4---4---4---6---x---6---6---6--|--2-------------------2----|
D|--5---x---5---5---5---7---x---7---7---7--|--0-------------------0----|
A|--5---x---5---5---5---7---x---7---7---7--|---------------------------|
E|--3---x---3---3---3---5-------5---5---5--|---------------------------|

3rd Chorus

e|--5-----------5-----------3-----------3----------|
B|--6---------------6-------3---------------3------|
G|--7-------7-----------7---4-------4-----------4--|
D|--7---7-------------------5---5------------------|
A|--5-----------------------5----------------------|
E|--------------------------3----------------------|

e|--0-----------0--------------------------------|
B|--1---------------1-------0h1-----------1------|
G|--2-------2-----------2-------------2---2------|
D|--2---2-------------------------2-------2------|
A|--0-------------------------------------0------|
E|--------------------------------------------3--|

e|--1-----------1---------------3-----------3--------------|
B|--1---------------1-----------3---------------3----------|
G|--2-------2-----------2-------4-------4-----------4------|
D|--3---3-------------------3---5---5-------------------5--|
A|--3---------------------------5--------------------------|
E|--1---------------------------3--------------------------|

e|-----------------------|------3-----------3--------------|
B|-----------------------|------3-------3-------3----------|
G|--------------------5--|------4---4---------------4------|
D|------0---2---5/7------|--7---5-----------------------5--|
A|--3--------------------|------5--------------------------|
E|-----------------------|------3--------------------------|

e|--------------0------------------------|
B|------------------1-------0h1---1---0--|
G|----------2-----------2---------2---0--|
D|------2-------------------------2---0--|
A|--0-----------------------------0------|
E|---------------------------------------|

e|--1-----------1---------------3-----------3--------------|
B|--1---------------1-----------3---------------3----------|
G|--2-------2-----------2-------4-------4-----------4------|
D|--3---3-------------------3---5---5-------------------5--|
A|--3---------------------------5--------------------------|
E|--1---------------------------3--------------------------|

e|-------------------------|
B|-------------------------|
G|--7---7---7---7---7---7--|
D|--7---7---7---7---7---7--|
A|--5---5---5---5---5---5--|
E|-------------------------|

Intro Reprise

e|--------------------------------|-------------------------|
B|--9hbr---7---9---7--------------|-------------------------|
G|---------------------9---6---7--|--9p7\6---7---6----------|
D|--------------------------------|------------------7---9--|
A|--------------------------------|-------------------------|
E|--------------------------------|-------------------------|

e|--------------------------------|-------------------------|
B|--9hbr---7---9---7--------------|-------------------------|
G|---------------------9---6---7--|--9p7\6---7---6----------|
D|--------------------------------|------------------7---9--|
A|--------------------------------|-------------------------|
E|--------------------------------|-------------------------|

1st Outro Solo play five times

e|-------------------------------------------------|
B|--7---x------------------------------------------|
G|--7---x---7---7---7---7---7---x---7---7---7---7--|
D|--9---x---9---9---9---9---7---x---7---7---7---7--|
A|--9---x---9---9---9---9---5---x---5---5---5---5--|
E|--7-------7---7---7---7--------------------------|

e|-------------------------------------------------|
B|--------------------------7---x------------------|
G|--6---x---6---6---6---6---7---x---7---7---7---7--|
D|--7---x---7---7---7---7---9---x---9---9---9---9--|
A|--7---x---7---7---7---7---9---x---9---9---9---9--|
E|--5---x---5---5---5---5---7---x---7---7---7---7--|

e|-------------------------------------------------|
B|--7---x------------------------------------------|
G|--7---x---7---7---7---7---4---x---4---4---4---4--|
D|--9---x---9---9---9---9---5---x---5---5---5---5--|
A|--9---x---9---9---9---9---5---x---5---5---5---5--|
E|--7-------7---7---7---7---3-------3---3---3---3--|

e|-------------------------------------------------|
B|--------------------------7---x------------------|
G|--6---x---6---6---6---6---7---x---7---7---7---7--|
D|--7---x---7---7---7---7---9---x---9---9---9---9--|
A|--7---x---7---7---7---7---9---x---9---9---9---9--|
E|--5---x---5---5---5---5---7---x---7---7---7---7--|

Intro reprise 

e|--------------------------------|-------------------------|
B|--9hbr---7---9---7--------------|-------------------------|
G|---------------------9---6---7--|--9p7\6---7---6----------|
D|--------------------------------|------------------7---9--|
A|--------------------------------|-------------------------|
E|--------------------------------|-------------------------|

e|--------------------------------|-------------------------|
B|--9hbr---7---9---7--------------|-------------------------|
G|---------------------9---6---7--|--9p7\6---7---6----------|
D|--------------------------------|------------------7---9--|
A|--------------------------------|-------------------------|
E|--------------------------------|-------------------------|

2nd Outro Solo 

e|-----------------------------|--------------------------------|
B|-----------------------------|--------------------------------|
G|------9b---9pbr---7---9~~~~--|--7---9---9br---7-----------9b--|
D|--9--------------------------|--------------------9---7-------|
A|-----------------------------|--------------------------------|
E|-----------------------------|--------------------------------|

e|-----------------------------------|---------------------|
B|-----------------------------------|---------------------|
G|--9br---7---9---7---6--------------|---------------------|
D|------------------------9---7------|---------------------|
A|--------------------------------9--|--7---5---4---0---2--|
E|-----------------------------------|---------------------|

e|-----------------9---9---9---9---9---9h10p9-----------------|
B|------------10--------------------------------12---10---12--|
G|-------11---------------------------------------------------|
D|--12--------------------------------------------------------|
A|------------------------------------------------------------|
E|------------------------------------------------------------|

e|-----------------------------|-------9---12---9-----------------9---12---9-|
B|--12b---12br---10---12-------|--10----------------10-------10--------------|
G|-------------------------11--|-------------------------9-------------------|
D|-----------------------------|---------------------------------------------|
A|-----------------------------|---------------------------------------------|
E|-----------------------------|---------------------------------------------|

e|--10p9-------------|-----------------------|
B|---------10--------|-----------------------|
G|--------------9\7--|--9\7\6-------6--------|
D|-------------------|----------7-------7/9--|
A|-------------------|-----------------------|
E|-------------------|-----------------------|

e|--12br---10---12--------10-------------------------------------------|
B|-------------------12--------10---12--------10-----------------------|
G|---------------------------------------11--------9---11---7---9---6--|
D|---------------------------------------------------------------------|
A|---------------------------------------------------------------------|
E|---------------------------------------------------------------------|

e|-----------------------------------|-----------------------7--10--7h10p7---|
B|-----------------------------------|-7---10--7h10p7-----8-----------------8|
G|--6---9---6h9p6-----------------7--|-----------------7---------------------|
D|------------------7/9---9\7/9------|---------------------------------------|
A|-----------------------------------|---------------------------------------|
E|-----------------------------------|---------------------------------------|

e|----------9---12---9--------------|
B|--8gh10----------------10/12------|
G|----------------------------------|
D|-------------------------------9--|
A|----------------------------------|
E|----------------------------------|

e|-------------------------------------------------------|
B|-------------------------------------------------------|
G|--9b---9pb---9pb---9pb---9pb---9pb---9pb---9pb---9pbr--|
D|-------------------------------------------------------|
A|-------------------------------------------------------|
E|-------------------------------------------------------|

e|--------------------------------------------------|
B|--------------------------------------------------|
G|--7---9~~~---7---9---9br---7-------------------7--|
D|-------------------------------9---9---7---9------|
A|--------------------------------------------------|
E|--------------------------------------------------|

e|-------------------------------------------|-----------------------------7-|
B|-------------------------------------------|-----------------------------7-|
G|--9b--9b---10b--10b---11b--11b---12b--12b--|-7-------9---7-----------9b----|
D|-------------------------------------------|-----9-----------9---9---------|
A|-------------------------------------------|-------------------------------|
E|-------------------------------------------|-------------------------------|

e|-----------7-----------7-----------7-----------7-----------7-----------|
B|--10p7--------10p7--------10p7--------10p7--------10p7--------10p7-----|
G|--------9-----------9-----------9-----------9-----------9-----------9--|
D|-----------------------------------------------------------------------|
A|-----------------------------------------------------------------------|
E|-----------------------------------------------------------------------|

e|--7-----------7-----------7--|------------7-----------------7--------------|
B|-----10p7--------10p7--------|-10p7----------10p7--10p7--------10p7--------|
G|-----------9-----------9-----|-------9p7-----------------9-----------9p7---|
D|-----------------------------|--------------------------------------------9|
A|-----------------------------|---------------------------------------------|
E|-----------------------------|---------------------------------------------|

e|-------------------------------|-------------------------------------------|
B|------7---------------12---10--|--12b--12b--12b--12br---------------12-----|
G|--9-------7--------------------|-----------------------11--9--11--11---11--|
D|--------------9---9------------|-------------------------------------------|
A|-------------------------------|-------------------------------------------|
E|-------------------------------|-------------------------------------------|

e|--------------------------------------|
B|--15b---15br---12----------------17b--|
G|--------------------14h16---16--------|
D|--------------------------------------|
A|--------------------------------------|
E|--------------------------------------|

e|-------------------------------------------------------------------------|
B|--15---17--------15-------------17b---15---17--------15-------------17b--|
G|------------16--------16---14-------------------16--------16---14--------|
D|-------------------------------------------------------------------------|
A|-------------------------------------------------------------------------|
E|-------------------------------------------------------------------------|

e|-------------------------------------------------------------------------|
B|--15---17--------15-------------17b---15---17--------15-------------17b--|
G|------------16--------16---14-------------------16--------16---14--------|
D|-------------------------------------------------------------------------|
A|-------------------------------------------------------------------------|
E|-------------------------------------------------------------------------|

e|---------------------------------------------|
B|--15---17b---15---17b---15---17b---15---17b--|
G|---------------------------------------------|
D|---------------------------------------------|
A|---------------------------------------------|
E|---------------------------------------------|

e|---------------------------------------------------|
B|--17b---17b---17pbr---15---------------------------|
G|---------------------------16---16---16---16---16--|
D|---------------------------------------------------|
A|---------------------------------------------------|
E|---------------------------------------------------|

e|----------------------------------------------------------|
B|--19br------19br------19br------19br------19br------19br--|
G|--------16--------16--------16--------16--------16--------|
D|----------------------------------------------------------|
A|----------------------------------------------------------|
E|----------------------------------------------------------|

e|----------------------------------------------|
B|------19br------19br------19br------19br------|
G|--16--------16--------16--------16--------16--|
D|----------------------------------------------|
A|----------------------------------------------|
E|----------------------------------------------|

e|---------------------------------------|
B|--17b---17b---17---15---17b---17---15--|
G|---------------------------------------|
D|---------------------------------------|
A|---------------------------------------|
E|---------------------------------------|

e|---------------------------------------------------|
B|--17b---17b---17---15---17b---17br---15--------15--|
G|------------------------------------------16---14--|
D|---------------------------------------------------|
A|---------------------------------------------------|
E|---------------------------------------------------|

e|-----------------------------------------|
B|-------15--------15--------15--------15--|
G|--16---14---16---14---16--------16---14--|
D|-----------------------------------------|
A|-----------------------------------------|
E|-----------------------------------------|

e|-----------------------------------------|
B|--15---15---15---15---15---15---15---15--|
G|--16---14---16---14---16---14---16---14--|
D|-----------------------------------------|
A|-----------------------------------------|
E|-----------------------------------------|

e|------------------------------------------|
B|--15---15---15---15---15---15---15---17b--|
G|--16---14---16---14---16---14---16--------|
D|------------------------------------------|
A|------------------------------------------|
E|------------------------------------------|

e|-----------------------------------------------------|
B|--17b---17b---17b---17b---17b---17br---15------------|
G|--------------------------------------------14---16--|
D|-----------------------------------------------------|
A|-----------------------------------------------------|
E|-----------------------------------------------------|

e|--------------------------------------------------|
B|-----------------17--------------------------20b--|
G|--16---16---16--------19p16--------16---16--------|
D|------------------------------16------------------|
A|--------------------------------------------------|
E|--------------------------------------------------|

e|-------------------------------------------------|
B|--19---20b---19---17---19---15h19p15---15---17b--|
G|-------------------------------------------------|
D|-------------------------------------------------|
A|-------------------------------------------------|
E|-------------------------------------------------|

e|--17--17--17-------17--17--17-------17--17--17-------17--17--17--|
B|---------------17b-------------17b--------------17b--------------|
G|-----------------------------------------------------------------|
D|-----------------------------------------------------------------|
A|-----------------------------------------------------------------|
E|-----------------------------------------------------------------|

e|-------17--17--17-------17------------------------14--|
B|--17b--------------17b-------17pbr---15---------------|
G|------------------------------------------16~~~~------|
D|------------------------------------------------------|
A|------------------------------------------------------|
E|------------------------------------------------------|

e|--18hpbr---18hpbr---18hpbr---18hpbr---18hpbr---18hpbr--|
B|-------------------------------------------------------|
G|-------------------------------------------------------|
D|-------------------------------------------------------|
A|-------------------------------------------------------|
E|-------------------------------------------------------|

e|--18hpbr---18hpbr---18hpbr---18hpbr---14---17--|
B|-----------------------------------------------|
G|-----------------------------------------------|
D|-----------------------------------------------|
A|-----------------------------------------------|
E|-----------------------------------------------|

e|--19b---17---19b---17---19b---17--------17----------------------|
B|-----------------------------------19--------17---19---15---17--|
G|----------------------------------------------------------------|
D|----------------------------------------------------------------|
A|----------------------------------------------------------------|
E|----------------------------------------------------------------|

e|------------------------------------------------------------------14--|
B|--17b---17pb---17pb---17pb---17pb---17pb---17pbr---15-----------------|
G|--------------------------------------------------------16---16-------|
D|----------------------------------------------------------------------|
A|----------------------------------------------------------------------|
E|----------------------------------------------------------------------|

e|-17p14-----14-19p14----14-17p14----14-19p14----14-17p14----14-19p14----14--|
B|--------17----------17----------17----------17----------17----------17-----|
G|---------------------------------------------------------------------------|
D|---------------------------------------------------------------------------|
A|---------------------------------------------------------------------------|
E|---------------------------------------------------------------------------|

e|-17p14-----14-19p14----14-17p14----14-19p14----14-17p14----14-19p14----14--|
B|--------17----------17----------17----------17----------17----------17-----|
G|---------------------------------------------------------------------------|
D|---------------------------------------------------------------------------|
A|---------------------------------------------------------------------------|
E|---------------------------------------------------------------------------|

e|-17p14-----14-19p14----14-17p14----14-19p14----14--|
B|--------17----------17----------17----------17-----|
G|---------------------------------------------------|
D|---------------------------------------------------|
A|---------------------------------------------------|
E|---------------------------------------------------|

e|--------17--17---------17--17--------17--17--17-------17--17-------17--17--|
B|--17b------------17b------------17b--------------17b----------17b----------|
G|---------------------------------------------------------------------------|
D|---------------------------------------------------------------------------|
A|---------------------------------------------------------------------------|
E|---------------------------------------------------------------------------|

e|--------17--17---------17--17--------17--17-------17--17-------------------|
B|--17b------------17b------------17b----------17b----------17br--15--17--15-|
G|---------------------------------------------------------------------------|
D|---------------------------------------------------------------------------|
A|---------------------------------------------------------------------------|
E|---------------------------------------------------------------------------|

e|--17br---14---17b---14---17b---14---17b---14---17p14--------17p14-------|
B|-------------------------------------------------------17-----------17--|
G|------------------------------------------------------------------------|
D|------------------------------------------------------------------------|
A|------------------------------------------------------------------------|
E|------------------------------------------------------------------------|

e|--17br---14---17b---14---17b---14---17b---14---17p14--------17p14-------|
B|-------------------------------------------------------17-----------17--|
G|------------------------------------------------------------------------|
D|------------------------------------------------------------------------|
A|------------------------------------------------------------------------|
E|------------------------------------------------------------------------|

e|--19--19---17--17---------------------------------------------------------|
B|---------------------19--19---17--17---15--15---14--14---12--12-----------|
G|------------------------------------------------------------------14--14--|
D|--------------------------------------------------------------------------|
A|--------------------------------------------------------------------------|
E|--------------------------------------------------------------------------|

e|----------------------------------|
B|----------------------------------|
G|--11---9---6---7-----------7---9--|
D|-------------------7---9----------|
A|----------------------------------|
E|----------------------------------|

e|--------------------------12---14---17---14---17br---17br---17br--|
B|--7---10---12---14---15-------------------------------------------|
G|------------------------------------------------------------------|
D|------------------------------------------------------------------|
A|------------------------------------------------------------------|
E|------------------------------------------------------------------|

e|--14---17---19b---19b---19---17---19b---19b--|--19b---19b---19b--|---------|
B|---------------------------------------------|-------------------|---------|
G|---------------------------------------------|-------------------|---------|
D|---------------------------------------------|-------------------|----9\---|
A|---------------------------------------------|-------------------|----9\---|
E|---------------------------------------------|-------------------|----7\---|

Guitar II (over Driven)

Intro

e|--------------------------------|-----------------------------|
B|--5hbr---3---5---3--------------|-----------------------------|
G|---------------------4---2---4--|-----------------------------|
D|--------------------------------|--7---6---4---6---4-------4--|
A|--------------------------------|----------------------7------|
E|--------------------------------|-----------------------------|

e|-----------------------------|-----------------------------|
B|-----------------------------|-----------------------------|
G|--7---6---4---6---4-------4--|-----------------------------|
D|----------------------7------|--7---6---4---6---4-------4--|
A|-----------------------------|----------------------7------|
E|-----------------------------|-----------------------------|

Intro Solo

e|-------------------------------------------------|
B|--7---x---7---7---7---7--------------------------|
G|--7---x---7---7---7---7---7---x---7---7---7---7--|
D|--9---x---9---9---9---9---7---x---7---7---7---7--|
A|--9---x---9---9---9---9---5---x---5---5---5---5--|
E|--7-------7---7---7---7--------------------------|

e|-------------------------------------------------|
B|--------------------------7---x------------------|
G|--6---x---6---6---6---6---7---x---7---7---7---7--|
D|--7---x---7---7---7---7---9---x---9---9---9---9--|
A|--7---x---7---7---7---7---9---x---9---9---9---9--|
E|--5---x---5---5---5---5---7---x---7---7---7---7--|

e|------------10--------14---12---10---9------------|------------------|
B|--12-------------12----------------------12---10--|------------------|
G|-------11-----------------------------------------|--11---9---6---7--|
D|--------------------------------------------------|------------------|
A|--------------------------------------------------|------------------|
E|--------------------------------------------------|------------------|

1st Verse

e|----------2---2---2-----------2---2---2--|
B|--3---x---3---3---3---3---x---3---3---3--|
G|--4---x---4---4---4---4---x---4---4---4--|
D|--4---x---4---4---4---4---x---4---4---4--|
A|--2---x---2---2---2---2---x---2---2---2--|
E|-----------------------------------------|

e|--2---x---2---2---2---2---x---2---2---2--|
B|--2---x---2---2---2---2---x---2---2---2--|
G|--2---x---2---2---2---2---x---2---2---2--|
D|--4---x---4---4---4---4---x---4---4---4--|
A|--4---x---4---4---4---4---x---4---4---4--|
E|--2---x---2---2---2---2---x---2---2---2--|

e|--3---x---3---3---3---0---x---0---0---0--|
B|--3---x---3---3---3---2---x---2---2---2--|
G|--0---x---0---0---0---2---x---2---2---2--|
D|--0---x---0---0---0---2---x---2---2---2--|
A|--2---x---2---2---2---0---x---0---0---0--|
E|--3---x---3---3---3----------------------|

e|--2---x---2---2---2---2---x---2---2---2--|
B|--3---x---3---3---3---3---x---3---3---3--|
G|--2---x---2---2---2---2---x---2---2---2--|
D|--0---x---0---0---0---0---x---0---0---0--|
A|-----------------------------------------|
E|-----------------------------------------|

e|----------2---2---2-----------2---2---2--|
B|--3---x---3---3---3---3---x---3---3---3--|
G|--4---x---4---4---4---4---x---4---4---4--|
D|--4---x---4---4---4---4---x---4---4---4--|
A|--2---x---2---2---2---2---x---2---2---2--|
E|-----------------------------------------|

e|--2---x---2---2---2---2---x---2---2---2--|
B|--2---x---2---2---2---2---x---2---2---2--|
G|--2---x---2---2---2---2---x---2---2---2--|
D|--4---x---4---4---4---4---x---4---4---4--|
A|--4---x---4---4---4---4---x---4---4---4--|
E|--2---x---2---2---2---2---x---2---2---2--|

e|--3---x---3---3---3---0---x---0---0---0--|
B|--3---x---3---3---3---2---x---2---2---2--|
G|--0---x---0---0---0---2---x---2---2---2--|
D|--0---x---0---0---0---2---x---2---2---2--|
A|--2---x---2---2---2---0---x---0---0---0--|
E|--3---x---3---3---3----------------------|

e|--2---x---2---2---2-------|
B|--3---x---3---3---3---7+--|
G|--2---x---2---2---2---7+--|
D|--0---x---0---0---0---7+--|
A|--------------------------|
E|--------------------------|

1st Chorus

e|--5---5---5---5---3---3---3---3--|--0---0---0---0---0---0---0---0---0--|
B|--6---6---6---6---3---3---3---3--|--1---1---1---1---1---1---1---1---0--|
G|--7---7---7---7---4---4---4---4--|--2---2---2---2---2---2---2---2---0--|
D|--7---7---7---7---5---5---5---3--|--2---2---2---2---2---2---2---2---0--|
A|--5---5---5---5---5---5---5---3--|--0---0---0---0---0---0---0---0------|
E|---------------------------------|-------------------------------------|

e|--1---1---1---1---3---3---3---3--|----------------------|----3---3---3---3-|
B|--1---1---1---1---3---3---3---3--|----------------------|----3---3---3---3-|
G|--2---2---2---2---4---4---4---4--|----------------------|----4---4---4---4-|
D|--3---3---3---3---5---5---5---5--|--------------0---2/5\|3---5---5---5---5-|
A|--3---3---3---3---5---5---5---5--|--0---2---3-----------|----5---5---5---5-|
E|---------------------------------|----------------------|------------------|

e|--0---0---0---0---0---0---0---0---0--|--1---1---1---1---3---3---3---3--|
B|--1---1---1---1---1---1---1---1---0--|--1---1---1---1---3---3---3---3--|
G|--2---2---2---2---2---2---2---2---0--|--2---2---2---2---4---4---4---4--|
D|--2---2---2---2---2---2---2---2---0--|--3---3---3---3---5---5---5---5--|
A|--0---0---0---0---0---0---0---0------|--3---3---3---3---5---5---5---5--|
E|-------------------------------------|---------------------------------|

e|--2---2---2---2---2---2--|
B|--3---3---3---3---3---3--|
G|--2---2---2---2---2---2--|
D|--0---0---0---0---0---0--|
A|-------------------------|
E|-------------------------|

2nd Verse

e|----------2---2---2-----------2---2---2--|
B|--3---x---3---3---3---3---x---3---3---3--|
G|--4---x---4---4---4---4---x---4---4---4--|
D|--4---x---4---4---4---4---x---4---4---4--|
A|--2---x---2---2---2---2---x---2---2---2--|
E|-----------------------------------------|

e|--2---x---2---2---2---2---x---2---2---2--|
B|--2---x---2---2---2---2---x---2---2---2--|
G|--2---x---2---2---2---2---x---2---2---2--|
D|--4---x---4---4---4---4---x---4---4---4--|
A|--4---x---4---4---4---4---x---4---4---4--|
E|--2---x---2---2---2---2---x---2---2---2--|

e|--3---x---3---3---3---0---x---0---0---0--|
B|--3---x---3---3---3---2---x---2---2---2--|
G|--0---x---0---0---0---2---x---2---2---2--|
D|--0---x---0---0---0---2---x---2---2---2--|
A|--2---x---2---2---2---0---x---0---0---0--|
E|--3---x---3---3---3----------------------|

e|--2---x---2---2---2---2---x---2---2---2--|
B|--3---x---3---3---3---3---x---3---3---3--|
G|--2---x---2---2---2---2---x---2---2---2--|
D|--0---x---0---0---0---0---x---0---0---0--|
A|-----------------------------------------|
E|-----------------------------------------|

e|----------2---2---2-----------2---2---2--|
B|--3---x---3---3---3---3---x---3---3---3--|
G|--4---x---4---4---4---4---x---4---4---4--|
D|--4---x---4---4---4---4---x---4---4---4--|
A|--2---x---2---2---2---2---x---2---2---2--|
E|-----------------------------------------|

e|--2---x---2---2---2---2---x---2---2---2--|
B|--2---x---2---2---2---2---x---2---2---2--|
G|--2---x---2---2---2---2---x---2---2---2--|
D|--4---x---4---4---4---4---x---4---4---4--|
A|--4---x---4---4---4---4---x---4---4---4--|
E|--2---x---2---2---2---2---x---2---2---2--|

e|--3---x---3---3---3---0---x---0---0---0--|
B|--3---x---3---3---3---2---x---2---2---2--|
G|--0---x---0---0---0---2---x---2---2---2--|
D|--0---x---0---0---0---2---x---2---2---2--|
A|--2---x---2---2---2---0---x---0---0---0--|
E|--3---x---3---3---3----------------------|

e|--2---x---2---2---2-------|
B|--3---x---3---3---3---7+--|
G|--2---x---2---2---2---7+--|
D|--0---x---0---0---0---7+--|
A|--------------------------|
E|--------------------------|

2nd Chorus

e|--5---5---5---5---3---3---3---3--|--0---0---0---0---0---0---0---0---0--|
B|--6---6---6---6---3---3---3---3--|--1---1---1---1---1---1---1---1---0--|
G|--7---7---7---7---4---4---4---4--|--2---2---2---2---2---2---2---2---0--|
D|--7---7---7---7---5---5---5---3--|--2---2---2---2---2---2---2---2---0--|
A|--5---5---5---5---5---5---5---3--|--0---0---0---0---0---0---0---0------|
E|---------------------------------|-------------------------------------|

e|--1---1---1---1---3---3---3---3--|----------------------|----3---3---3---3-|
B|--1---1---1---1---3---3---3---3--|----------------------|----3---3---3---3-|
G|--2---2---2---2---4---4---4---4--|----------------------|----4---4---4---4-|
D|--3---3---3---3---5---5---5---5--|--------------0---2/5\|3---5---5---5---5-|
A|--3---3---3---3---5---5---5---5--|--0---2---3-----------|----5---5---5---5-|
E|---------------------------------|----------------------|------------------|

e|--0---0---0---0---0---0---0---0---0--|--1---1---1---1---3---3---3---3--|
B|--1---1---1---1---1---1---1---1---0--|--1---1---1---1---3---3---3---3--|
G|--2---2---2---2---2---2---2---2---0--|--2---2---2---2---4---4---4---4--|
D|--2---2---2---2---2---2---2---2---0--|--3---3---3---3---5---5---5---5--|
A|--0---0---0---0---0---0---0---0------|--3---3---3---3---5---5---5---5--|
E|-------------------------------------|---------------------------------|

e|--2---2---2---2--|
B|--3---3---3---3--|
G|--2---2---2---2--|
D|--0---0---0---0--|
A|-----------------|
E|-----------------|

1st Solo

e|-------------------|---------------------------------|
B|-------------------|---------------------------------|
G|--------2---2------|--4---4b---4pbr---2---4---4---2--|
D|--2/4-----------4--|---------------------------------|
A|-------------------|---------------------------------|
E|-------------------|---------------------------------|

e|--------------------------------------------------|
B|-------2---2--------2---2-------------------------|
G|--4b-----------4b-----------4pbr---2-----------2--|
D|---------------------------------------4---4------|
A|--------------------------------------------------|
E|--------------------------------------------------|

e|----------3-------3--------------5-------5------|
B|----------3---3---3---3----------5---5---5---5--|
G|---3gh4-------4-------4---5gh6-------6-------6--|
D|------------------------------------------------|
A|------------------------------------------------|
E|------------------------------------------------|

e|--3p2-----2--------------------------------------------------------------|
B|-------5-----5p3-----3---------------------------------------------------|
G|------------------4-----4p2-----3----------------2---4---4br---2---4~~~--|
D|-----------------------------4-----4p2p0---2---4-------------------------|
A|-------------------------------------------------------------------------|
E|-------------------------------------------------------------------------|

Solo II

e|----------2---2---2-----------2---2---2--|
B|--3---x---3---3---3---3---x---3---3---3--|
G|--4---x---4---4---4---4---x---4---4---4--|
D|--4---x---4---4---4---4---x---4---4---4--|
A|--2---x---2---2---2---2---x---2---2---2--|
E|-----------------------------------------|

e|--2---x---2---2---2---2---x---2---2---2--|
B|--2---x---2---2---2---2---x---2---2---2--|
G|--2---x---2---2---2---2---x---2---2---2--|
D|--4---x---4---4---4---4---x---4---4---4--|
A|--4---x---4---4---4---4---x---4---4---4--|
E|--2---x---2---2---2---2---x---2---2---2--|

e|--3---x---3---3---3---0---x---0---0---0--|
B|--3---x---3---3---3---2---x---2---2---2--|
G|--0---x---0---0---0---2---x---2---2---2--|
D|--0---x---0---0---0---2---x---2---2---2--|
A|--2---x---2---2---2---0---x---0---0---0--|
E|--3---x---3---3---3----------------------|

e|--2---x---2---2---2------------------------------|
B|--3---x---3---3---3---7---5----------------------|
G|--2---x---2---2---2-----------7---6---4----------|
D|--0---x---0---0---0-----------------------7---5--|
A|-------------------------------------------------|
E|-------------------------------------------------|

3rd Verse

e|------2---2-----------2---2---2--|--2---x---2---2---2---2---x---2---2---2--|
B|------3---3---3---x---3---3---3--|--2---x---2---2---2---2---x---2---2---2--|
G|------4---4---4---x---4---4---4--|--2---x---2---2---2---2---x---2---2---2--|
D|--4---4---4---4---x---4---4---4--|--4---x---4---4---4---4---x---4---4---4--|
A|------2---2---2---x---2---2---2--|--4---x---4---4---4---4---x---4---4---4--|
E|---------------------------------|--2---x---2---2---2---2---x---2---2---2--|

e|--3---x---3---3---3---0---x---0---0---0--|
B|--3---x---3---3---3---2---x---2---2---2--|
G|--0---x---0---0---0---2---x---2---2---2--|
D|--0---x---0---0---0---2---x---2---2---2--|
A|--2---x---2---2---2---0---x---0---0---0--|
E|--3---x---3---3---3----------------------|

e|--2---x---2---2---2---2---x---2---2---2--|
B|--3---x---3---3---3---3---x---3---3---3--|
G|--2---x---2---2---2---2---x---2---2---2--|
D|--0---x---0---0---0---0---x---0---0---0--|
A|-----------------------------------------|
E|-----------------------------------------|

e|----------2---2---2-----------2---2---2--|
B|--3---x---3---3---3---3---x---3---3---3--|
G|--4---x---4---4---4---4---x---4---4---4--|
D|--4---x---4---4---4---4---x---4---4---4--|
A|--2---x---2---2---2---2---x---2---2---2--|
E|-----------------------------------------|

e|--2---x---2---2---2---2---x---2---2---2--|
B|--2---x---2---2---2---2---x---2---2---2--|
G|--2---x---2---2---2---2---x---2---2---2--|
D|--4---x---4---4---4---4---x---4---4---4--|
A|--4---x---4---4---4---4---x---4---4---4--|
E|--2---x---2---2---2---2---x---2---2---2--|

e|--3---x---3---3---3---0---x---0---0---0--|
B|--3---x---3---3---3---2---x---2---2---2--|
G|--0---x---0---0---0---2---x---2---2---2--|
D|--0---x---0---0---0---2---x---2---2---2--|
A|--2---x---2---2---2---0---x---0---0---0--|
E|--3---x---3---3---3----------------------|

e|--2---x---2---2---2-------|
B|--3---x---3---3---3---7+--|
G|--2---x---2---2---2---7+--|
D|--0---x---0---0---0---7+--|
A|--------------------------|
E|--------------------------|

3rd Chorus

e|--5---5---5---5---3---3---3---3--|--0---0---0---0---0---0---0---0---0--|
B|--6---6---6---6---3---3---3---3--|--1---1---1---1---1---1---1---1---0--|
G|--7---7---7---7---4---4---4---4--|--2---2---2---2---2---2---2---2---0--|
D|--7---7---7---7---5---5---5---3--|--2---2---2---2---2---2---2---2---0--|
A|--5---5---5---5---5---5---5---3--|--0---0---0---0---0---0---0---0------|
E|---------------------------------|-------------------------------------|

e|--1---1---1---1---3---3---3---3--|----------------------|----3---3---3---3-|
B|--1---1---1---1---3---3---3---3--|----------------------|----3---3---3---3-|
G|--2---2---2---2---4---4---4---4--|----------------------|----4---4---4---4-|
D|--3---3---3---3---5---5---5---5--|--------------0---2/5\|3---5---5---5---5-|
A|--3---3---3---3---5---5---5---5--|--0---2---3-----------|----5---5---5---5-|
E|---------------------------------|----------------------|------------------|

e|--0---0---0---0---0---0---0---0---0--|--1---1---1---1---3---3---3---3--|
B|--1---1---1---1---1---1---1---1---0--|--1---1---1---1---3---3---3---3--|
G|--2---2---2---2---2---2---2---2---0--|--2---2---2---2---4---4---4---4--|
D|--2---2---2---2---2---2---2---2---0--|--3---3---3---3---5---5---5---5--|
A|--0---0---0---0---0---0---0---0------|--3---3---3---3---5---5---5---5--|
E|-------------------------------------|---------------------------------|

e|--2---2---2---2---2---2--|
B|--3---3---3---3---3---3--|
G|--2---2---2---2---2---2--|
D|--0---0---0---0---0---0--|
A|-------------------------|
E|-------------------------|

Intro Reprise

e|--------------------------------|-----------------------------|
B|--5hbr---3---5---3--------------|-----------------------------|
G|---------------------4---2---4--|-----------------------------|
D|--------------------------------|--7---6---4---6---4-------4--|
A|--------------------------------|----------------------7------|
E|--------------------------------|-----------------------------|

e|-----------------------------|
B|-----------------------------|
G|--7---6---4---6---4-------4--|
D|----------------------7------|
A|-----------------------------|
E|-----------------------------|

1st Outro Solo

  Let Ring ------------------|

e|---------------------------------------------------------|
B|---------------------------------------------------------|
G|--------7---7--------------------------------------------|
D|----------------------0---0------------------------------|
A|--4/5-----------4/5-----------5---5---5---5---5---5---5--|
E|---------------------------------------------------------|

  Let Ring ----------------------------------------------------|

e|-------------------------------------------------------------|
B|-------------------------------------------------------------|
G|--------7---------------7---------------7-------------7---7--|
D|----------------0---------------0----------------------------|
A|--4/5-------5-------5-------5-------5-------5---4/5----------|
E|-------------------------------------------------------------|

  Let Ring ----------|

e|-------------------------------------------------------|
B|-------------------------------------------------------|
G|--------7---------7-----------------7---7--------------|
D|------------------------------------7---7---9---9---9--|
A|--4/5-------4/5-------7---5---7/9----------------------|
E|-------------------------------------------------------|

e|-------------------------------------------|
B|-------------------------------------------|
G|------7---9---7---9---7p6---------------7--|
D|--9-------------------------7---9---9------|
A|-------------------------------------------|
E|-------------------------------------------|

e|-------------------------------------------------------------|
B|--10---10----10----10----10----------------------------------|
G|--9b---9pb---9pb---9pb---9pbr---9p7-------------------2---2--|
D|--------------------------------------9---9\4---2/4---4---4--|
A|-------------------------------------------------------------|
E|-------------------------------------------------------------|

e|-----------------------------------------------|
B|-----------------------------------------------|
G|--2---------2---2---2---------2---4---4b---4b--|
D|--4---2/4---4---4---4---2/4--------------------|
A|-----------------------------------------------|
E|-----------------------------------------------|

e|------------------------------------------------------|
B|------------------------------------------------------|
G|--4b---4---2---4---2---4---4-----------2-----------2--|
D|-------------------------------3---4-------3---4------|
A|------------------------------------------------------|
E|------------------------------------------------------|

e|-------------------------------------------------|
B|-------------------------------------------------|
G|----------2-------2---4b---4b---4br---2---4---2--|
D|--3---4-------4----------------------------------|
A|-------------------------------------------------|
E|-------------------------------------------------|

e|---------------------------------------------|
B|---------------------------------------------|
G|---------------------------------------------|
D|--2---4---2----------------------------------|
A|--------------2---0---2---2---2---2---2/5/7--|
E|---------------------------------------------|

e|-------------------------------------------------|
B|-------------------------------------------------|
G|----------------------7---9b---9b---9br---7---9--|
D|--------7---7---7h9------------------------------|
A|--7/9--------------------------------------------|
E|-------------------------------------------------|

e|-------------------------------------------------|
B|--------------------------7-------7-------7------|
G|--7---6---7---6-----------7-------7-------7------|
D|------------------7---9-------9-------9-------9--|
A|-------------------------------------------------|
E|-------------------------------------------------|

e|--------------------------------------------|
B|--10---9---7-------10---9---7---------------|
G|--10---9---7---9---10---9---7-------10------|
D|---------------9----------------9--------9--|
A|--------------------------------------------|
E|--------------------------------------------|

e|---------------------------------------------|
B|--10---9---7-------10---9---7----------------|
G|--10---9---7---9---10---9---7-------7h9---7--|
D|---------------9----------------7---------7--|
A|--------------------------------7------------|
E|---------------------------------------------|

e|---------------------------------------------------|
B|------10---9---7-------10---9---7------------------|
G|------10---9---7---9---10---9---7---------7--------|
D|--9----------------9----------------7h9-------9p7--|
A|--9------------------------------------------------|
E|---------------------------------------------------|

e|----------------------------------------7-----7-----|
B|----------10---9---7-------10---9---7---10b---10pb--|
G|----------10---9---7---9---10---9---7---------------|
D|------7----------------9----------------------------|
A|--9-------------------------------------------------|
E|----------------------------------------------------|

e|--7-----7---7---7-----7---7---7-----7---7---7-----7---7--|
B|--10b-----------10b-----------10b-----------10b----------|
G|---------------------------------------------------------|
D|---------------------------------------------------------|
A|---------------------------------------------------------|
E|---------------------------------------------------------|

e|--7-----7---7---7-----7---7---7-----7---7---7-------------------|
B|--10b-----------10b-----------10b-----------10br---7------------|
G|-------------------------------------------------------9br---7--|
D|----------------------------------------------------------------|
A|----------------------------------------------------------------|
E|----------------------------------------------------------------|

e|------------------------------------------------------|
B|--17b---17br---15---17---17---17---17---17---17---17--|
G|------------------------------------------------------|
D|------------------------------------------------------|
A|------------------------------------------------------|
E|------------------------------------------------------|

e|--17----17-----17-----17-----17------------------------------------|
B|--17b---17pb---17pb---17pb---17pb---17br---15-------------15---15--|
G|------------------------------------------------16---16---16---16--|
D|-------------------------------------------------------------------|
A|-------------------------------------------------------------------|
E|-------------------------------------------------------------------|

e|--12/14-14-14-14---12/14-14-14-14---12/14-14-14-14-14-14-14---------------|
B|--13/15-15-15-15---13/15-15-15-15---13/15-15-15-15-15-15-15-----------15--|
G|--12/14-14-14-14---12/14-14-14-14---12/14-14-14-14-14-14-14---12/16-------|
D|--------------------------------------------------------------------------|
A|--------------------------------------------------------------------------|
E|--------------------------------------------------------------------------|

e|-----------------------------------------------------------|
B|--17b---17pb---17pb---17pb---17pb---17pb---17br---15-------|
G|-------------------------------------------------------16--|
D|-----------------------------------------------------------|
A|-----------------------------------------------------------|
E|-----------------------------------------------------------|

Intro Reprise

e|------------------------------|-------------------------------|
B|------------------------------|-------------------------------|
G|--9---7---6---7---6-----------|--4---2------------------------|
D|----------------------7---9---|----------4---3---2---0---2/4--|
A|------------------------------|-------------------------------|
E|------------------------------|-------------------------------|

e|------------------------------|-------------------------------|
B|------------------------------|-------------------------------|
G|--9---7---6---7---6-----------|--4---2------------------------|
D|----------------------7---9---|----------4---3---2---0---2/4--|
A|------------------------------|-------------------------------|
E|------------------------------|-------------------------------|


2nd outro Solo


e|----------------------|----------------------|----------------------|
B|----------------------|----------------------|----------------------|
G|----------------------|----------------------|----------------------|
D|----------------------|----------------------|----------------------|
A|----------------------|----------------------|----------------------|
E|----------------------|----------------------|----------------------|

e|----------------------|----------------------|----------------------|
B|----------------------|----------------------|----------------------|
G|----------------------|----------------------|----------------------|
D|----------------------|----------------------|----------------------|
A|----------------------|----------------------|----------------------|
E|----------------------|----------------------|----------------------|

e|----------------------|----------------------|----------------------|
B|----------------------|----------------------|----------------------|
G|----------------------|----------------------|----------------------|
D|----------------------|----------------------|----------------------|
A|----------------------|----------------------|----------------------|
E|----------------------|----------------------|----------------------|

e|----------------------|----------------------|-----------------------------|
B|----------------------|----------------------|-----------------------------|
G|----------------------|----------------------|-----------------------------|
D|----------------------|----------------------|--9---9---9---9---9---9---9--|
A|----------------------|----------------------|--9---9---9---9---9---9---9--|
E|----------------------|----------------------|--7---7---7---7---7---7---7--|
	
Play Three Times
e|-------------------------------------------------|
B|--7---x---7---7---7---7--------------------------|
G|--7---x---7---7---7---7---7---x---7---7---7---7--|
D|--9---x---9---9---9---9---7---x---7---7---7---7--|
A|--9---x---9---9---9---9---5---x---5---5---5---5--|
E|--7-------7---7---7---7--------------------------|

e|-------------------------------------------------|
B|--------------------------7---x------------------|
G|--6---x---6---6---6---6---7---x---7---7---7---7--|
D|--7---x---7---7---7---7---9---x---9---9---9---9--|
A|--7---x---7---7---7---7---9---x---9---9---9---9--|
E|--5---x---5---5---5---5---7---x---7---7---7---7--|

e|-------------------------------------------------|
B|--7---x------------------------------------------|
G|--7---x---7---7---7---7---4---x---4---4---4---4--|
D|--9---x---9---9---9---9---5---x---5---5---5---5--|
A|--9---x---9---9---9---9---5---x---5---5---5---5--|
E|--7-------7---7---7---7---3-------3---3---3---3--|

e|-------------------------------------------------|
B|--------------------------7---x------------------|
G|--6---x---6---6---6---6---7---x---7---7---7---7--|
D|--7---x---7---7---7---7---9---x---9---9---9---9--|
A|--7---x---7---7---7---7---9---x---9---9---9---9--|
E|--5---x---5---5---5---5---7---x---7---7---7---7--|

4th Time

e|-------------------------------------------------|
B|--7---x---7---7---7---7--------------------------|
G|--7---x---7---7---7---7---7---x---7---7---7---7--|
D|--9---x---9---9---9---9---7---x---7---7---7---7--|
A|--9---x---9---9---9---9---5---x---5---5---5---5--|
E|--7-------7---7---7---7--------------------------|

e|-------------------------------------------------|
B|--------------------------7---x------------------|
G|--6---x---6---6---6---6---7---x---7---7---7---7--|
D|--7---x---7---7---7---7---9---x---9---9---9---9--|
A|--7---x---7---7---7---7---9---x---9---9---9---9--|
E|--5---x---5---5---5---5---7---x---7---7---7---7--|

e|--------------------|-------------------------|----------------------|
B|--------------------|-------------------------|----------------------|
G|--7----7----4----4--|--6----6----7----7----7--|--7----7----7----6----|
D|--9----9----5----5--|--7----7----9----9----9--|--9----7----7----7----|
A|--9----9----5----5--|--7----7----9----9----9--|--9----5----5----7----|
E|--7----7----3----3--|--5----5----7----7----7--|--7--------------5----|

e|--------------------|--------------------|-----------------------------|
B|--------------------|--------------------|-----------------------------|
G|--6----7----7----7--|--7----4----4----6--|--6---7---7---7---7---7---7--|
D|--7----9----9----9--|--9----5----5----7--|--7---9---9---9---9---9---9--|
A|--7----9----9----9--|--9----5----5----7--|--7---9---9---9---9---9---9--|
E|--5----7----7----7--|--7----3----3----5--|--5---7---7---7---7---7---7--|

e|-------------------------------------------------|
B|--7---x---7---7---7---7--------------------------|
G|--7---x---7---7---7---7---7---x---7---7---7---7--|
D|--9---x---9---9---9---9---7---x---7---7---7---7--|
A|--9---x---9---9---9---9---5---x---5---5---5---5--|
E|--7-------7---7---7---7--------------------------|

e|-------------------------------------------------|
B|--------------------------7---x------------------|
G|--6---x---6---6---6---6---7---x---7---7---7---7--|
D|--7---x---7---7---7---7---9---x---9---9---9---9--|
A|--7---x---7---7---7---7---9---x---9---9---9---9--|
E|--5---x---5---5---5---5---7---x---7---7---7---7--|

e|-------------------------------------------------|
B|--7---x------------------------------------------|
G|--7---x---7---7---7---7---4---x---4---4---4---4--|
D|--9---x---9---9---9---9---5---x---5---5---5---5--|
A|--9---x---9---9---9---9---5---x---5---5---5---5--|
E|--7-------7---7---7---7---3-------3---3---3---3--|

e|-------------------------------------------------|
B|--------------------------7---x------------------|
G|--6---x---6---6---6---6---7---x---7---7---7---7--|
D|--7---x---7---7---7---7---9---x---9---9---9---9--|
A|--7---x---7---7---7---7---9---x---9---9---9---9--|
E|--5---x---5---5---5---5---7---x---7---7---7---7--|

e|-------------------------------------------------|
B|--7---x---7---7---7---7--------------------------|
G|--7---x---7---7---7---7---7---x---7---7---7---7--|
D|--9---x---9---9---9---9---7---x---7---7---7---7--|
A|--9---x---9---9---9---9---5---x---5---5---5---5--|
E|--7-------7---7---7---7--------------------------|

e|-------------------------------------------------|
B|--------------------------7---x------------------|
G|--6---x---6---6---6---6---7---x---7---7---7---7--|
D|--7---x---7---7---7---7---9---x---9---9---9---9--|
A|--7---x---7---7---7---7---9---x---9---9---9---9--|
E|--5---x---5---5---5---5---7---x---7---7---7---7--|

e|-------------------------------------------------|
B|--7---x------------------------------------------|
G|--7---x---7---7---7---7---4---x---4---4---4---4--|
D|--9---x---9---9---9---9---5---x---5---5---5---5--|
A|--9---x---9---9---9---9---5---x---5---5---5---5--|
E|--7-------7---7---7---7---3-------3---3---3---3--|

e|------------------------------------------|
B|--------------------------7---x-------12--|
G|--6---x---6---6---6---6---7---x---7-------|
D|--7---x---7---7---7---7---9---x---9-------|
A|--7---x---7---7---7---7---9---x---9-------|
E|--5---x---5---5---5---5---7---x---7-------|

e|---------------------------------------------------------------------------|
B|-15p12------12--17p12------12--15p12------12--17p12------12--15p12------12-|
G|--------14-------------14-------------14-------------14-------------14-----|
D|---------------------------------------------------------------------------|
A|---------------------------------------------------------------------------|
E|---------------------------------------------------------------------------|

e|-----------------------------------------------|
B|--17p12------12--15p12------12--17p12------12--|
G|---------14-------------14-------------14------|
D|-----------------------------------------------|
A|-----------------------------------------------|
E|-----------------------------------------------|

e|--------14--14---------14--14---------14--14---------14--14---------14--14-|
B|--17b------------17b------------17b------------17b------------17b----------|
G|---------------------------------------------------------------------------|
D|---------------------------------------------------------------------------|
A|---------------------------------------------------------------------------|
E|---------------------------------------------------------------------------|

e|-------14--14-------14--14-------14--14-------14--14-----------------------|
B|--17b----------17b----------17b----------17b----------17br---15---17-------|
G|-----------------------------------------------------------------------16--|
D|---------------------------------------------------------------------------|
A|---------------------------------------------------------------------------|
E|---------------------------------------------------------------------------|

e|---------------------------------------------------------------------------|
B|--17br---15---17br---15---17br---15---17br---15---17p15--------17p15-------|
G|----------------------------------------------------------16-----------16--|
D|---------------------------------------------------------------------------|
A|---------------------------------------------------------------------------|
E|---------------------------------------------------------------------------|

e|---------------------------------------------------------------------------|
B|--17br---15---17br---15---17br---15---17br---15---17p15--------17p15-------|
G|----------------------------------------------------------16-----------16--|
D|---------------------------------------------------------------------------|
A|---------------------------------------------------------------------------|
E|---------------------------------------------------------------------------|

e|---------------------------------------------------------------|
B|--12--12---10--10----------------------------------------------|
G|--------------------11--11---9--9---7--7---6--6---4--4---2--2--|
D|---------------------------------------------------------------|
A|---------------------------------------------------------------|
E|---------------------------------------------------------------|

e|-------------------------------|----------------------------|-------------|
B|-------------------------------|----------------------------|-------------|
G|--4----2--------------4-----6--|--7----9----11----14----16--|-----16\-----|
D|------------2----4----4-----6--|--7----9----11----14----16--|-----16\-----|
A|----------------------2-----4--|--5----7----10----12----14--|-----14\-----|
E|---------------------//----//--|--//---//---------------//--|-------------|
                                               
Guitar III (Clean Tone)

Intro

e|---------------------|------------2--|---------------------|------------2--|
B|--3----3----0----3---|------------3--|--3----3----0----3---|------------3--|
G|--4----4----0----2---|--2----2----4--|--4----4----0----2---|--2----2----4--|
D|--4----4----0----0---|--2----2----4--|--4----4----0----0---|--2----2----4--|
A|--2----2-------------|--0----0----2--|--2----2-------------|--0----0----2--|
E|---------------------|---------------|---------------------|---------------|

Intro Solo


e|----------2---2---2---2---2---x---2---2---2---2--|
B|--3---x---3---3---3---3---3---x---3---3---3---3--|
G|--4---x---4---4---4---4---2---x---2---2---2---2--|
D|--4---x---4---4---4---4---0---x---0---0---0---0--|
A|--2---x---2---2---2---2--------------------------|
E|-------------------------------------------------|

e|----------------------------------2---2---2---2--|
B|--------------------------3---x---3---3---3---3--|
G|--2---x---2---2---2---2---4---x---4---4---4---4--|
D|--2---x---2---2---2---2---4---x---4---4---4---4--|
A|--0---x---0---0---0---0---2---x---2---2---2---2--|
E|-------------------------------------------------|

e|----------2---2---2---2---2---x---2---2---2---2--|
B|--3---x---3---3---3---3---3---x---3---3---3---3--|
G|--4---x---4---4---4---4---2---x---2---2---2---2--|
D|--4---x---4---4---4---4---0---x---0---0---0---0--|
A|--2---x---2---2---2---2--------------------------|
E|-------------------------------------------------|

e|----------------------2--|
B|----------------------3--|
G|--7------------2------4--|
D|--7------------2------4--|
A|--5-----4------0------2--|
E|-------------------------|

1st Verse

e|----------2---2---2---2-----------2---2---2---2--|
B|--3---3---3---3---3---3---3---3---3---3---3---3--|
G|--4---4---4---4---4---4---4---4---4---4---4---4--|
D|--4---4---4---4---4---4---4---4---4---4---4---4--|
A|--2---2---2---2---2---2---2---2---2---2---2---2--|
E|-------------------------------------------------|


e|--2---2---2---2---2---2---2---2---2---2---2---2--|
B|--2---2---2---2---2---2---2---2---2---2---2---2--|
G|--2---2---2---2---2---2---2---2---2---2---2---2--|
D|--4---4---4---4---4---4---4---4---4---4---4---4--|
A|--4---4---4---4---4---4---4---4---4---4---4---4--|
E|--2---2---2---2---2---2---2---2---2---2---2---2--|

e|--3---3---3---3---3---3---0---0---0---0---0---0--|
B|--3---3---3---3---3---3---2---2---2---2---2---2--|
G|--0---0---0---0---0---0---2---2---2---2---2---2--|
D|--0---0---0---0---0---0---2---2---2---2---2---2--|
A|--2---2---2---2---2---2---0---0---0---0---0---0--|
E|--3---3---3---3---3---3--------------------------|

e|--2---2---2---2---2---2---2---2---2---2---2---2--|
B|--3---3---3---3---3---3---3---3---3---3---3---3--|
G|--2---2---2---2---2---2---2---2---2---2---2---2--|
D|--0---0---0---0---0---0---0---0---0---0---0---0--|
A|-------------------------------------------------|
E|-------------------------------------------------|

e|----------2---2---2---2-----------2---2---2---2--|
B|--3---3---3---3---3---3---3---3---3---3---3---3--|
G|--4---4---4---4---4---4---4---4---4---4---4---4--|
D|--4---4---4---4---4---4---4---4---4---4---4---4--|
A|--2---2---2---2---2---2---2---2---2---2---2---2--|
E|-------------------------------------------------|


e|--2---2---2---2---2---2---2---2---2---2---2---2--|
B|--2---2---2---2---2---2---2---2---2---2---2---2--|
G|--2---2---2---2---2---2---2---2---2---2---2---2--|
D|--4---4---4---4---4---4---4---4---4---4---4---4--|
A|--4---4---4---4---4---4---4---4---4---4---4---4--|
E|--2---2---2---2---2---2---2---2---2---2---2---2--|

e|--3---3---3---3---3---3---0---0---0---0---0---0--|
B|--3---3---3---3---3---3---2---2---2---2---2---2--|
G|--0---0---0---0---0---0---2---2---2---2---2---2--|
D|--0---0---0---0---0---0---2---2---2---2---2---2--|
A|--2---2---2---2---2---2---0---0---0---0---0---0--|
E|--3---3---3---3---3---3--------------------------|

e|--2---x---2---2---2---2--|
B|--3---x---3---3---3---3--|
G|--2---x---2---2---2---2--|
D|--0---x---0---0---0---0--|
A|-------------------------|
E|-------------------------|


1st Chorus


e|--5---5---5---3---3---3--|--0---0---0---0---0---0---3--|
B|--6---6---6---3---3---3--|--1---1---1---1---1---1---3--|
G|--7---7---7---0---0---0--|--2---2---2---2---2---2---0--|
D|--7---7---7---0---0---0--|--2---2---2---2---2---2---0--|
A|--5---5---5---2---2---2--|--0---0---0---0---0---0---2--|
E|--------------3---3---3--|--------------------------3--|

e|--1---1---1---3---3---3--|--0---------0-----------------|
B|--1---1---1---3---3---3--|--1---------1-----------------|
G|--2---2---2---0---0---0--|--2---------0---------0----0--|
D|--3---3---3---0---0---0--|--2---------2----0----2-------|
A|--3---3---3---2---2---2--|--0----2----3---------2-------|
E|--1---1---1---3---3---3--|------------------------------|

e|--5---5---5---3---3---3--|--0---0---0---0---0---0---3--|
B|--6---6---6---3---3---3--|--1---1---1---1---1---1---3--|
G|--7---7---7---0---0---0--|--2---2---2---2---2---2---0--|
D|--7---7---7---0---0---0--|--2---2---2---2---2---2---0--|
A|--5---5---5---2---2---2--|--0---0---0---0---0---0---2--|
E|--------------3---3---3--|--------------------------3--|

e|--1---1---1---3---3---3--|--2---2---2---2---2---2--|
B|--1---1---1---3---3---3--|--3---3---3---3---3---3--|
G|--2---2---2---0---0---0--|--2---2---2---2---2---2--|
D|--3---3---3---0---0---0--|--0---0---0---0---0---0--|
A|--3---3---3---2---2---2--|-------------------------|
E|--1---1---1---3---3---3--|-------------------------|


2nd Verse

e|----------2---2---2---2-----------2---2---2---2--|
B|--3---3---3---3---3---3---3---3---3---3---3---3--|
G|--4---4---4---4---4---4---4---4---4---4---4---4--|
D|--4---4---4---4---4---4---4---4---4---4---4---4--|
A|--2---2---2---2---2---2---2---2---2---2---2---2--|
E|-------------------------------------------------|


e|--2---2---2---2---2---2---2---2---2---2---2---2--|
B|--2---2---2---2---2---2---2---2---2---2---2---2--|
G|--2---2---2---2---2---2---2---2---2---2---2---2--|
D|--4---4---4---4---4---4---4---4---4---4---4---4--|
A|--4---4---4---4---4---4---4---4---4---4---4---4--|
E|--2---2---2---2---2---2---2---2---2---2---2---2--|

e|--3---3---3---3---3---3---0---0---0---0---0---0--|
B|--3---3---3---3---3---3---2---2---2---2---2---2--|
G|--0---0---0---0---0---0---2---2---2---2---2---2--|
D|--0---0---0---0---0---0---2---2---2---2---2---2--|
A|--2---2---2---2---2---2---0---0---0---0---0---0--|
E|--3---3---3---3---3---3--------------------------|

e|--2---2---2---2---2---2---2---2---2---2---2---2--|
B|--3---3---3---3---3---3---3---3---3---3---3---3--|
G|--2---2---2---2---2---2---2---2---2---2---2---2--|
D|--0---0---0---0---0---0---0---0---0---0---0---0--|
A|-------------------------------------------------|
E|-------------------------------------------------|

e|----------2---2---2---2-----------2---2---2---2--|
B|--3---3---3---3---3---3---3---3---3---3---3---3--|
G|--4---4---4---4---4---4---4---4---4---4---4---4--|
D|--4---4---4---4---4---4---4---4---4---4---4---4--|
A|--2---2---2---2---2---2---2---2---2---2---2---2--|
E|-------------------------------------------------|


e|--2---2---2---2---2---2---2---2---2---2---2---2--|
B|--2---2---2---2---2---2---2---2---2---2---2---2--|
G|--2---2---2---2---2---2---2---2---2---2---2---2--|
D|--4---4---4---4---4---4---4---4---4---4---4---4--|
A|--4---4---4---4---4---4---4---4---4---4---4---4--|
E|--2---2---2---2---2---2---2---2---2---2---2---2--|

e|--3---3---3---3---3---3---0---0---0---0---0---0--|
B|--3---3---3---3---3---3---2---2---2---2---2---2--|
G|--0---0---0---0---0---0---2---2---2---2---2---2--|
D|--0---0---0---0---0---0---2---2---2---2---2---2--|
A|--2---2---2---2---2---2---0---0---0---0---0---0--|
E|--3---3---3---3---3---3--------------------------|

e|--2---x---2---2---2---2--|
B|--3---x---3---3---3---3--|
G|--2---x---2---2---2---2--|
D|--0---x---0---0---0---0--|
A|-------------------------|
E|-------------------------|

2nd Chorus

e|--5---5---5---3---3---3--|--0---0---0---0---0---0---3--|
B|--6---6---6---3---3---3--|--1---1---1---1---1---1---3--|
G|--7---7---7---0---0---0--|--2---2---2---2---2---2---0--|
D|--7---7---7---0---0---0--|--2---2---2---2---2---2---0--|
A|--5---5---5---2---2---2--|--0---0---0---0---0---0---2--|
E|--------------3---3---3--|--------------------------3--|

e|--1---1---1---3---3---3--|--0---------0-----------------|
B|--1---1---1---3---3---3--|--1---------1-----------------|
G|--2---2---2---0---0---0--|--2---------0---------0----0--|
D|--3---3---3---0---0---0--|--2---------2----0----2-------|
A|--3---3---3---2---2---2--|--0----2----3---------2-------|
E|--1---1---1---3---3---3--|------------------------------|

e|--5---5---5---3---3---3--|--0---0---0---0---0---0---3--|
B|--6---6---6---3---3---3--|--1---1---1---1---1---1---3--|
G|--7---7---7---0---0---0--|--2---2---2---2---2---2---0--|
D|--7---7---7---0---0---0--|--2---2---2---2---2---2---0--|
A|--5---5---5---2---2---2--|--0---0---0---0---0---0---2--|
E|--------------3---3---3--|--------------------------3--|

e|--1---1---1---3---3---3--|--2---2---2---2---2---2--|
B|--1---1---1---3---3---3--|--3---3---3---3---3---3--|
G|--2---2---2---0---0---0--|--2---2---2---2---2---2--|
D|--3---3---3---0---0---0--|--0---0---0---0---0---0--|
A|--3---3---3---2---2---2--|-------------------------|
E|--1---1---1---3---3---3--|-------------------------|

1st Solo

e|----------2---2---2---2-----------2---2---2---2--|
B|--3---3---3---3---3---3---3---3---3---3---3---3--|
G|--4---4---4---4---4---4---4---4---4---4---4---4--|
D|--4---4---4---4---4---4---4---4---4---4---4---4--|
A|--2---2---2---2---2---2---2---2---2---2---2---2--|
E|-------------------------------------------------|

e|--2---2---2---2---2---2---2---2---2---2---2---2--|
B|--2---2---2---2---2---2---2---2---2---2---2---2--|
G|--2---2---2---2---2---2---2---2---2---2---2---2--|
D|--4---4---4---4---4---4---4---4---4---4---4---4--|
A|--4---4---4---4---4---4---4---4---4---4---4---4--|
E|--2---2---2---2---2---2---2---2---2---2---2---2--|

e|--3---3---3---3---3---3---0---0---0---0---0---0--|
B|--3---3---3---3---3---3---2---2---2---2---2---2--|
G|--0---0---0---0---0---0---2---2---2---2---2---2--|
D|--0---0---0---0---0---0---2---2---2---2---2---2--|
A|--2---2---2---2---2---2---0---0---0---0---0---0--|
E|--3---3---3---3---3---3--------------------------|

e|--2---2---2---2---2---2---2---2---2---2---2---2--|
B|--3---3---3---3---3---3---3---3---3---3---3---3--|
G|--2---2---2---2---2---2---2---2---2---2---2---2--|
D|--0---0---0---0---0---0---0---0---0---0---0---0--|
A|-------------------------------------------------|
E|-------------------------------------------------|

Solo II

e|----------2---2---2---2-----------2---2---2---2--|
B|--3---3---3---3---3---3---3---3---3---3---3---3--|
G|--4---4---4---4---4---4---4---4---4---4---4---4--|
D|--4---4---4---4---4---4---4---4---4---4---4---4--|
A|--2---2---2---2---2---2---2---2---2---2---2---2--|
E|-------------------------------------------------|

e|--2---2---2---2---2---2---2---2---2---2---2---2--|
B|--2---2---2---2---2---2---2---2---2---2---2---2--|
G|--2---2---2---2---2---2---2---2---2---2---2---2--|
D|--4---4---4---4---4---4---4---4---4---4---4---4--|
A|--4---4---4---4---4---4---4---4---4---4---4---4--|
E|--2---2---2---2---2---2---2---2---2---2---2---2--|

e|--3---3---3---3---3---3---0---0---0---0---0---0--|
B|--3---3---3---3---3---3---2---2---2---2---2---2--|
G|--0---0---0---0---0---0---2---2---2---2---2---2--|
D|--0---0---0---0---0---0---2---2---2---2---2---2--|
A|--2---2---2---2---2---2---0---0---0---0---0---0--|
E|--3---3---3---3---3---3--------------------------|

e|--2---x---2---2---2---2--|
B|--3---x---3---3---3---3--|
G|--2---x---2---2---2---2--|
D|--0---x---0---0---0---0--|
A|-------------------------|
E|-------------------------|

3rd Verse

e|----------2---2---2---2-----------2---2---2---2--|
B|--3---3---3---3---3---3---3---3---3---3---3---3--|
G|--4---4---4---4---4---4---4---4---4---4---4---4--|
D|--4---4---4---4---4---4---4---4---4---4---4---4--|
A|--2---2---2---2---2---2---2---2---2---2---2---2--|
E|-------------------------------------------------|

e|--2---2---2---2---2---2---2---2---2---2---2---2--|
B|--2---2---2---2---2---2---2---2---2---2---2---2--|
G|--2---2---2---2---2---2---2---2---2---2---2---2--|
D|--4---4---4---4---4---4---4---4---4---4---4---4--|
A|--4---4---4---4---4---4---4---4---4---4---4---4--|
E|--2---2---2---2---2---2---2---2---2---2---2---2--|

e|--3---3---3---3---3---3---0---0---0---0---0---0--|
B|--3---3---3---3---3---3---2---2---2---2---2---2--|
G|--0---0---0---0---0---0---2---2---2---2---2---2--|
D|--0---0---0---0---0---0---2---2---2---2---2---2--|
A|--2---2---2---2---2---2---0---0---0---0---0---0--|
E|--3---3---3---3---3---3--------------------------|

e|--2---2---2---2---2---2---2---2---2---2---2---2--|
B|--3---3---3---3---3---3---3---3---3---3---3---3--|
G|--2---2---2---2---2---2---2---2---2---2---2---2--|
D|--0---0---0---0---0---0---0---0---0---0---0---0--|
A|-------------------------------------------------|
E|-------------------------------------------------|

e|----------2---2---2---2-----------2---2---2---2--|
B|--3---3---3---3---3---3---3---3---3---3---3---3--|
G|--4---4---4---4---4---4---4---4---4---4---4---4--|
D|--4---4---4---4---4---4---4---4---4---4---4---4--|
A|--2---2---2---2---2---2---2---2---2---2---2---2--|
E|-------------------------------------------------|

e|--2---2---2---2---2---2---2---2---2---2---2---2--|
B|--2---2---2---2---2---2---2---2---2---2---2---2--|
G|--2---2---2---2---2---2---2---2---2---2---2---2--|
D|--4---4---4---4---4---4---4---4---4---4---4---4--|
A|--4---4---4---4---4---4---4---4---4---4---4---4--|
E|--2---2---2---2---2---2---2---2---2---2---2---2--|

e|--3---3---3---3---3---3---0---0---0---0---0---0--|
B|--3---3---3---3---3---3---2---2---2---2---2---2--|
G|--0---0---0---0---0---0---2---2---2---2---2---2--|
D|--0---0---0---0---0---0---2---2---2---2---2---2--|
A|--2---2---2---2---2---2---0---0---0---0---0---0--|
E|--3---3---3---3---3---3--------------------------|

e|--2---x---2---2---2---2--|
B|--3---x---3---3---3---3--|
G|--2---x---2---2---2---2--|
D|--0---x---0---0---0---0--|
A|-------------------------|
E|-------------------------|

3rd Chorus

e|--5---5---5---3---3---3--|--0---0---0---0---0---0---3--|
B|--6---6---6---3---3---3--|--1---1---1---1---1---1---3--|
G|--7---7---7---0---0---0--|--2---2---2---2---2---2---0--|
D|--7---7---7---0---0---0--|--2---2---2---2---2---2---0--|
A|--5---5---5---2---2---2--|--0---0---0---0---0---0---2--|
E|--------------3---3---3--|--------------------------3--|

e|--1---1---1---3---3---3--|--0---------0-----------------|
B|--1---1---1---3---3---3--|--1---------1-----------------|
G|--2---2---2---0---0---0--|--2---------0---------0----0--|
D|--3---3---3---0---0---0--|--2---------2----0----2-------|
A|--3---3---3---2---2---2--|--0----2----3---------2-------|
E|--1---1---1---3---3---3--|------------------------------|

e|--5---5---5---3---3---3--|--0---0---0---0---0---0---3--|
B|--6---6---6---3---3---3--|--1---1---1---1---1---1---3--|
G|--7---7---7---0---0---0--|--2---2---2---2---2---2---0--|
D|--7---7---7---0---0---0--|--2---2---2---2---2---2---0--|
A|--5---5---5---2---2---2--|--0---0---0---0---0---0---2--|
E|--------------3---3---3--|--------------------------3--|

e|--1---1---1---3---3---3--|--2---2---2---2---2---2--|
B|--1---1---1---3---3---3--|--3---3---3---3---3---3--|
G|--2---2---2---0---0---0--|--2---2---2---2---2---2--|
D|--3---3---3---0---0---0--|--0---0---0---0---0---0--|
A|--3---3---3---2---2---2--|-------------------------|
E|--1---1---1---3---3---3--|-------------------------|

Intro Reprise

e|---------------------|------------2--|---------------------|------------2--|
B|--3----3----0----3---|------------3--|--3----3----0----3---|------------3--|
G|--4----4----0----2---|--2----2----4--|--4----4----0----2---|--2----2----4--|
D|--4----4----0----0---|--2----2----4--|--4----4----0----0---|--2----2----4--|
A|--2----2-------------|--0----0----2--|--2----2-------------|--0----0----2--|
E|---------------------|---------------|---------------------|---------------|

1st Outro Solo
Play four times
e|----------2---2---2---2---2---x---2---2---2---2--|
B|--3---x---3---3---3---3---3---x---3---3---3---3--|
G|--4---x---4---4---4---4---2---x---2---2---2---2--|
D|--4---x---4---4---4---4---0---x---0---0---0---0--|
A|--2---x---2---2---2---2--------------------------|
E|-------------------------------------------------|

e|----------------------------------2---2---2---2--|
B|--------------------------3---x---3---3---3---3--|
G|--2---x---2---2---2---2---4---x---4---4---4---4--|
D|--2---x---2---2---2---2---4---x---4---4---4---4--|
A|--0---x---0---0---0---0---2---x---2---2---2---2--|
E|-------------------------------------------------|

e|----------2---2---2---2---3---x---3---3---3---3--|
B|--3---x---3---3---3---3---3---x---3---3---3---3--|
G|--4---x---4---4---4---4---0---x---0---0---0---0--|
D|--4---x---4---4---4---4---0---x---0---0---0---0--|
A|--2---x---2---2---2---2---2-------2---2---2---2--|
E|--------------------------3-------3---3---3---3--|

e|----------------------------------2---2---2---2--|
B|--------------------------3---x---3---3---3---3--|
G|--2---x---2---2---2---2---4---x---4---4---4---4--|
D|--2---x---2---2---2---2---4---x---4---4---4---4--|
A|--0---x---0---0---0---0---2---x---2---2---2---2--|
E|-------------------------------------------------|

Intro Reprise

e|---------------------|------------2--|---------------------|------------2--|
B|--3----3----0----3---|------------3--|--3----3----0----3---|------------3--|
G|--4----4----0----2---|--2----2----4--|--4----4----0----2---|--2----2----4--|
D|--4----4----0----0---|--2----2----4--|--4----4----0----0---|--2----2----4--|
A|--2----2-------------|--0----0----2--|--2----2-------------|--0----0----2--|
E|---------------------|---------------|---------------------|---------------|

2nd Outro Solo

e|----------------------|----------------------|----------------------|
B|----------------------|----------------------|----------------------|
G|----------------------|----------------------|----------------------|
D|----------------------|----------------------|----------------------|
A|----------------------|----------------------|----------------------|
E|----------------------|----------------------|----------------------|

e|----------------------|----------------------|----------------------|
B|----------------------|----------------------|----------------------|
G|----------------------|----------------------|----------------------|
D|----------------------|----------------------|----------------------|
A|----------------------|----------------------|----------------------|
E|----------------------|----------------------|----------------------|

e|----------------------|----------------------|----------------------|
B|----------------------|----------------------|----------------------|
G|----------------------|----------------------|----------------------|
D|----------------------|----------------------|----------------------|
A|----------------------|----------------------|----------------------|
E|----------------------|----------------------|----------------------|

e|----------------------|----------------------|-----------------------------|
B|----------------------|----------------------|-----------------------------|
G|----------------------|----------------------|-----------------------------|
D|----------------------|----------------------|--9---9---9---9---9---9---9--|
A|----------------------|----------------------|--9---9---9---9---9---9---9--|
E|----------------------|----------------------|--7---7---7---7---7---7---7--|

Play three times
	
e|----------2---2---2---2---2---x---2---2---2---2--|
B|--3---x---3---3---3---3---3---x---3---3---3---3--|
G|--4---x---4---4---4---4---2---x---2---2---2---2--|
D|--4---x---4---4---4---4---0---x---0---0---0---0--|
A|--2---x---2---2---2---2--------------------------|
E|-------------------------------------------------|

e|----------------------------------2---2---2---2--|
B|--------------------------3---x---3---3---3---3--|
G|--2---x---2---2---2---2---4---x---4---4---4---4--|
D|--2---x---2---2---2---2---4---x---4---4---4---4--|
A|--0---x---0---0---0---0---2---x---2---2---2---2--|
E|-------------------------------------------------|

e|----------2---2---2---2---3---x---3---3---3---3--|
B|--3---x---3---3---3---3---3---x---3---3---3---3--|
G|--4---x---4---4---4---4---0---x---0---0---0---0--|
D|--4---x---4---4---4---4---0---x---0---0---0---0--|
A|--2---x---2---2---2---2---2-------2---2---2---2--|
E|--------------------------3-------3---3---3---3--|

e|----------------------------------2---2---2---2--|
B|--------------------------3---x---3---3---3---3--|
G|--2---x---2---2---2---2---4---x---4---4---4---4--|
D|--2---x---2---2---2---2---4---x---4---4---4---4--|
A|--0---x---0---0---0---0---2---x---2---2---2---2--|
E|-------------------------------------------------|

4th Time
e|----------2---2---2---2---2---x---2---2---2---2--|
B|--3---x---3---3---3---3---3---x---3---3---3---3--|
G|--4---x---4---4---4---4---2---x---2---2---2---2--|
D|--4---x---4---4---4---4---0---x---0---0---0---0--|
A|--2---x---2---2---2---2--------------------------|
E|-------------------------------------------------|

e|----------------------------------2---2---2---2--|--2----2----3-----3--|
B|--------------------------3---x---3---3---3---3--|--3----3----3-----3--|
G|--2---x---2---2---2---2---4---x---4---4---4---4--|--4----4----0-----0--|
D|--2---x---2---2---2---2---4---x---4---4---4---4--|--4----4----0-----0--|
A|--0---x---0---0---0---0---2---x---2---2---2---2--|--2----2----2-----2--|
E|-------------------------------------------------|------------3-----3--|

e|------------2----2----2--|--2-----2-----2--------|-------2----2----2--|
B|------------3----3----3--|--3-----3-----3--------|-------2----3----2--|
G|--2----2----4----4----4--|--4-----2-----2-----2--|--2----4----4----4--|
D|--2----2----4----4----4--|--4-----0-----0-----2--|--2----4----4----4--|
A|--0----0----2----2----2--|--2-----------------0--|--0----2----2----2--|
E|-------------------------|-----------------------|--------------------|

e|--2----3-----3--------|-------2---2---2---2---2---2--|
B|--3----3-----3--------|-------3---3---3---3---3---3--|
G|--4----0-----0-----2--|--2----4---4---4---4---4---4--|
D|--4----0-----0-----2--|--2----4---4---4---4---4---4--|
A|--2----2-----2-----0--|--0----2---2---2---2---2---2--|
E|-------3-----3--------|------------------------------|

Play three times
e|----------2---2---2---2---2---x---2---2---2---2--|
B|--3---x---3---3---3---3---3---x---3---3---3---3--|
G|--4---x---4---4---4---4---2---x---2---2---2---2--|
D|--4---x---4---4---4---4---0---x---0---0---0---0--|
A|--2---x---2---2---2---2--------------------------|
E|-------------------------------------------------|

e|----------------------------------2---2---2---2--|
B|--------------------------3---x---3---3---3---3--|
G|--2---x---2---2---2---2---4---x---4---4---4---4--|
D|--2---x---2---2---2---2---4---x---4---4---4---4--|
A|--0---x---0---0---0---0---2---x---2---2---2---2--|
E|-------------------------------------------------|

e|----------2---2---2---2---3---x---3---3---3---3--|
B|--3---x---3---3---3---3---3---x---3---3---3---3--|
G|--4---x---4---4---4---4---0---x---0---0---0---0--|
D|--4---x---4---4---4---4---0---x---0---0---0---0--|
A|--2---x---2---2---2---2---2-------2---2---2---2--|
E|--------------------------3-------3---3---3---3--|

e|----------------------------------2---2---2---2--|
B|--------------------------3---x---3---3---3---3--|
G|--2---x---2---2---2---2---4---x---4---4---4---4--|
D|--2---x---2---2---2---2---4---x---4---4---4---4--|
A|--0---x---0---0---0---0---2---x---2---2---2---2--|
E|-------------------------------------------------|

4th time

e|----------2---2---2---2---2---x---2---2---2---2--|
B|--3---x---3---3---3---3---3---x---3---3---3---3--|
G|--4---x---4---4---4---4---2---x---2---2---2---2--|
D|--4---x---4---4---4---4---0---x---0---0---0---0--|
A|--2---x---2---2---2---2--------------------------|
E|-------------------------------------------------|

e|----------------------------------2---2---2---2--|
B|--------------------------3---x---3---3---3---3--|
G|--2---x---2---2---2---2---4---x---4---4---4---4--|
D|--2---x---2---2---2---2---4---x---4---4---4---4--|
A|--0---x---0---0---0---0---2---x---2---2---2---2--|
E|-------------------------------------------------|

e|----------2---2---2---2---3---x---3---3---3---3--|------------2---|---2\---|
B|--3---x---3---3---3---3---3---x---3---3---3---3--|------------3---|---3\---|
G|--4---x---4---4---4---4---0---x---0---0---0---0--|--2----2----4---|---4\---|
D|--4---x---4---4---4---4---0---x---0---0---0---0--|--2----2----4---|---4\---|
A|--2---x---2---2---2---2---2-------2---2---2---2--|--0----0----2---|---2\---|
E|--------------------------3-------3---3---3---3--|------------//--|--------|

************************************
| /   slide up
| \   slide down
| h   hammer-on
| p   pull-off
| ~   vibrato
| +   harmonic
| x   Mute note
| b   Bend
| pb  Pre-bend
| br  Bend release
| pbr Pre-bend release
| brb Bend release bend
| hb Half bend
| g Grace note
| // Tremelo
************************************
Intro

Bm  A11  D  A  Bm

Bm  A11  D  A  Bm

Intro Solo

Bm  D  A  Bm

Bm  D  Db A  Bm

1st Verse

       Bm                               Fm
As the Autumn wind whispers through the tall and lonley pines and the 

G             A                   D
hour of fate is drawing close at hand 


Bm             Fm
  a Free bird falling from the sky brings a 

G              A                D
bitter end to another southern man 

1st Chorus

              Dm    G    Am                        G
But there's a grey ghost runnin thourgh the night 

F         G               Am   G
echo the sadness and the pain 

F           G   Am                       G
  a grey ghost runnin thourgh the night 

    F                   G            D
the man is gone but his spirit will remain 

2nd Verse

Bm                          Fm
Fast life like the music is just a grim disguise for the 

G                  A               D
heartache and the fear of growing old 

    Bm                              Fm
without the ones that mean the most makes you realize 

     G                    A                D
that your the one that's left out in the cold 

2nd Chorus

              Dm    G    Am                        G
But there's a grey ghost runnin thourgh the night 

F         G               Am   G
echo the sadness and the pain 

F           G   Am                       G
  a grey ghost runnin thourgh the night 

    F                   G            D
the man is gone but his spirit will remain

1st Solo

Bm  Fm  G  A  D

2nd Solo

Bm  Fm  G  A  D

3rd Verse
 

     Bm                 Fm
The dealer of death has delt a losin hand 

           G              A               D
and it's a cold fact the cards don't ever lie 

       Bm                               Fm         
driven by a dream of things to come is such a price to pay 

         G             A              D
when the memories are all that's left behind 

3rd Chorus

              Dm    G    Am                        G
But there's a grey ghost runnin thourgh the night 

F         G               Am   G
echo the sadness and the pain 

F           G   Am                       G
  a grey ghost runnin thourgh the night 

    F                   G            D
the man is gone but his spirit will remain

Intro Reprise

Bm  A11  D  A  Bm

Bm  A11  D  A  Bm

1st Outro Solo

Bm  D  A  Bm

Bm  G  A  Bm

Bm  D  A  Bm

Bm  G  A  Bm

Bm  D  A  Bm

Bm  G  A  Bm

Bm  D  A  Bm

Bm  G  A  Bm

Intro Reprise

Bm  A11  D  A  Bm

Bm  A11  D  A  Bm

2nd Outro Solo

N.C.   B

Bm  D  A  Bm

Bm  G  A  Bm

Bm  D  A  Bm

Bm  G  A  Bm

Bm  D  A  Bm

Bm  G  A  Bm
 Repeat 10 times

Bm  D  A  Bm

Bm  G  A  Bm
Добавлено: 16.10.2013
Другие материалы по этой песне:

Страница создана 06.06.2012
http://primanota.ru/henry-paul-band/grey-ghost-chords.htm
Привет, Гость.
Предлагаем пройти революционный курс по гитаре.
Подарок от PrimaNota.Ru, забирай!