PrimaNota.ru - самый крупный в мире бесплатный архив песенных текстов, аккордов, табулатур и нот


Henry Mancini - Peter Gunn Theme - бас-таба, видео

Регистрация Запомнить меня
Войти через:  Facebook Google Twitter Vk Yandex Mail.ru

Henry Mancini - Peter Gunn Theme - бас-таба, видео

Печатать
Просмотров: 378
Ok, the basic main riff of the song goes as follows in a repetitive pattern.

G----------------------------------|
D----------------------------------|
A-------------1-0-------------1-0--|
E-1-1-3-1-4-1-----1-1-3-1-4-1------|

For those of you who like to go up an octave

G-----0---1---3-2-----0---1---3-2--|
D-3-3---3---3-----3-3---3---3------|
A----------------------------------|
E----------------------------------|

Then on the hits

G----------------------------------|
D----------------------------------|
A-----------------3-3--------------|
E--1---------1---------------------|

G----------------------------------|
D----------------------------------|
A-3--------------------------------|
E---1-1-1-1-1-1-1------------------|

Repeat the former pattern

Then on the hits at the end

G-----------------------------------|
D-----------------------------------|
A-----------------------------------|
E-2-2-2-2-2-2-2-21------------------|
Добавлено: 23.02.2012
Другие материалы по этой песне:

Страница создана 23.02.2012
http://primanota.ru/henry-mancini/peter-gunn-theme-chords.htm
Привет, Гость.
Предлагаем пройти революционный курс по гитаре.
Подарок от PrimaNota.Ru, забирай!