PrimaNota.ru - самый крупный в мире бесплатный архив песенных текстов, аккордов, табулатур и нот


Henry Mancini - Charade Instrumental - таба, видео

Регистрация Запомнить меня
Войти через:  Facebook Google Twitter Vk Yandex Mail.ru

Henry Mancini - Charade Instrumental - таба, видео

Печатать
Просмотров: 301
Theme From Charade
By Henry Mancini

Main Riff:
 
e|-------------------------------------------------------------------|
B|-------------------------------------------------------------------|
G|-------------------------------------------------------------------|
D|--------9-7---------------2-----0-2-0----0-2-0---0-2-0-------------|
A|--7-8-7-----7---7-8-7-5-3---2---------2--------2-------3-2-0-------|
E|-------------------------------------------------------------------|

Violin Riff:

e|---------------------7-8-7-----------------------------------------|
B|------------------10-------8---------------------------------------|
G|----------9-10-10------------9------10------12---------------------|
D|--9-10-12----------------------10-9----12-9------------------------|
A|-------------------------------------------------------------------|
E|-------------------------------------------------------------------|


e|------------7-8-7--------------------------------------------------|
B|---------10-------8------------------------------------------------|
G|---10-10------------9----------------------------------------------|
D|----------------------10-9-7---------------------------------------|
A|------------------------------3-4-5-2-3-2--------------------------|
E|-------------------------------------------------------------------|

Then back to the main riff:

e|-------------------------------------------------------------------|
B|-------------------------------------------------------1------0----|
G|-----------------------------------------------------------------2-|
D|--------9-7---------------2-----0-2-0----0-2-0---0-2-3-------------|
A|--7-8-7-----7---7-8-7-5-3---2---------2--------2-------------------|
E|-------------------------------------------------------------------|

Then, the big finish:

e|-------------------------------------------------------------------|
B|-------------------------------------------------------------------|
G|--10-10-10-10-10-10-10-10-10-10-10-10-14---------------------------|
D|-----------------------------------------------7-------------------|
A|--8--8--8--8--8--8--8--8--8--8--8--8--12---------------------------|
E|-----------------------------------------------5-------------------|
Добавлено: 04.04.2012
Другие материалы по этой песне:
  • Аккорды и текст

Страница создана 04.04.2012
http://primanota.ru/henry-mancini/charade-instrumental-chords.htm
Привет, Гость.
Предлагаем пройти революционный курс по гитаре.
Подарок от PrimaNota.Ru, забирай!