PrimaNota.ru - самый крупный в мире бесплатный архив песенных текстов, аккордов, табулатур и нот


Henry Creamer - After You've Gone (feat. Layton Turner) - таба, видео

Регистрация Запомнить меня
Войти через:  Facebook Google Twitter Vk Yandex Mail.ru

Henry Creamer - After You've Gone (feat. Layton Turner) - таба, видео

Печатать
Просмотров: 110
Авторы музыки: Turner Layton
Авторы текста: Henry Creamer
//-------------------------------------------------------------------------------------------//
                        After You've Gone - Henry Creamer (& Turner Layton)
//-------------------------------------------------------------------------------------------//
Tabbed by: Kevin L.
E-mail: allsheeps@gmail.com
Date: August 30, 2015
//-------------------------------------------------------------------------------------------//
I didn't find another tab for this jazz standard with just the simple melody.
I like this with a good swing feel to it.

Enjoy!
===============================================================================================
Key: Bb
Tuning: Standard EADGBe
Parts:
    [1] Lead Guitar
    [2] Rhythm guitar
Song structure:
    Part [A]
    Part [B]
Chords:  With some gypsy jazz style chords
     E  A  D  G  B  e
Bb   6  8  8  7  6  6
Bb7  6  x  6  7  x  x
Cm   x  10 10 8  x  x 
C7   8  x  8  9  x  x 
Cm7  8  x  8  8  x  x
D7   x  5  4  5  x  x
Eb   x  6  8  8  8  6
Ebm  x  6  8  8  7  6
Ebm6 11 x  10 11 x  x 
F7   x  8  7  8  x  x
G7   x  10 9  10 x  x
Gm7  x  10 8  10 x  x

========================================[1] Lead guitar========================================
                    
Part [A]

e||------8-10--8-10-8-10-8------------------------------ 10 10----8-8-----------------------|
B||--8-11------------------------8-10--8-10-8-10-8----8--------8----------8--11--8--11---6--|
G||-------------------------7-10---------------------------------------10--10--10-10----7---|
D||-----------------------------------------------------------------------------------------|
A||-----------------------------------------------------------------------------------------|
E||-----------------------------------------------------------------------------------------|

Part [B]

e|-----8-10--8-10-8-10-8-------------------------11--10--8-----10-8---9-10-6-8-7-8-5-6----5-3|
B|-8-11-----------------------8-10-8-10-8-10-8-------------7-8-------------------------------|
G|------------------------7-10---------------------------------------------------------6-7---|
D|-------------------------------------------------------------------------------------------|
A|-------------------------------------------------------------------------------------------|
E|-------------------------------------------------------------------------------------------|
  
e|----------10----------8----10-10-----||
B|--------11---------10------------11--||
G|--10-12-------8-10-------------------||
D|-------------------------------------||
A|-------------------------------------||
E|-------------------------------------||


=======================================[2] Rhythm guitar========================================

Part [A]
    Eb   %  Ebm  %   Bb  %   G7  %    
e|---6---6---6---6---6---6---x---x---|
B|---8---8---7---7---6---6---x---x---|
G|---8---8---8---8---7---7---10--10--|
D|---8---8---8---8---8---8---9---9---|
A|---6---6---6---6---8---8---10--10--|
E|---x---x---x---x---6---6---x---x---|

    C7   %   F7  %   Bb  %  Bb7  % 
e|---x---x-----------6---6---x---x---|
B|---x---x-----------6---6---x---x---|
G|---8---8---8---8---7---7---7---7---|
D|---7---7---7---7---8---8---6---6---|
A|---x---x---8---8---8---8---x---x---|
E|---7---7---x---x---6---6---6---6---|


==Part [B]==
    Eb   %  Ebm  %   Bb  %   G7  %    
e|---6---6---6---6---6---6---x---x---|
B|---8---8---7---7---6---6---x---x---|
G|---8---8---8---8---7---7---10--10--|
D|---8---8---8---8---8---8---9---9---|
A|---6---6---6---6---8---8---10--10--|
E|---x---x---x---x---6---6---x---x---|

    Cm  G7  Cm Ebm6  Bb D7  Gm7  C7
e|-------------------6---x---x-------|
B|-------------------6---x---x-------|
G|---8---10--8---11--7---5---10--9---|
D|---10--9---10--10--8---4---8---8---|
A|---10--10--10--x---8---5---10--x---|
E|---x---x---x---11--6---x---x---8---|

    Bb  G7  Cm7  F7  Bb  %  Bb7  %
e|---6-----------x---6---6---x---x---|
B|---6-----------x---6---6---x---x---|
G|---7---10--8---8---7---7---7---7---|
D|---8---9---8---7---8---8---6---6---|
A|---8---10--x---8---8---8---x---x---|
E|---6---x---8---x---6---6---6---6---|


=======================================Lyrics==========================================


After you've gone, and left me cryin'
After you've gone, there's no denyin'
You feel blue, you feel sad
You miss the dearest pal you ever had

There'll come a time, now don't forget it
There'll come a time,    when you'll regret it
Someday when you grow lonely
Your heart will break like mine and you'll want me only
After you've gone, after you've gone away 


************************************************************************************************
|  /  slide up
|  \  slide down
|  x  mute
|  %  repeat segment
Добавлено: 24.06.2016
Другие материалы по этой песне:

Страница создана 27.06.2012
http://primanota.ru/henry-creamer/after-youve-gone-chords.htm
Привет, Гость.
Предлагаем пройти революционный курс по гитаре.
Подарок от PrimaNota.Ru, забирай!