PrimaNota.ru - самый крупный в мире бесплатный архив песенных текстов, аккордов, табулатур и нот


Henrique E Juliano - Mudando De Assunto - таба, видео

Регистрация Запомнить меня
Войти через:  Facebook Google Twitter Vk Yandex Mail.ru

Henrique E Juliano - Mudando De Assunto - таба, видео

Печатать
Просмотров: 180
Уроки эстрадного вокала в Санкт-Петербурге
Tom: E
Intro: E  B7  C#m  G#m  A  E  B7
       F#m  A9  E

E                    B7            C#m
  Quer saber qual seria o meu pesadelo
             G#m            A
Sem nenhuma dúvida seria o medo
           E                    B7
Seria acordar, não estar com você

E                   B7
  Chega a dar tremedeira
              C#m
Um mal na barriga
            G#m                   A
Quem ama demais não suporta uma briga
         E                   B7
Ciúme demais faz a gente sofrer


Pré-refrão:

F#m7(11)               A9
         Mudando de assunto 
       E
Cê tá tão bonita
F#m7(11)                A9
         Que cheiro gostoso
              E
Que vem de você
F#m7(11)                A9
         E se eu te contar 
         E
Você nem acredita
F#m7(11)                A9
         Se eu tava brigando 
                     B9
Eu nem lembro o porquê


Refrão:

      E     B              C#m
Pra que brigar se o amor é isso
         G#m         A
É uma espécie de um vício
       E            B9
Mil maneiras de querer
      E     B                 C#m
Pra que brigar, chorar, ir embora
        G#m           A
Eu bem sei que nessa hora
        B9          E
Vai me dar vontade de você

Pré-refrão:

F#m7(11)               A9
         Mudando de assunto 
       E
Cê tá tão bonita
F#m7(11)                A9
         Que cheiro gostoso
              E
Que vem de você
F#m7(11)                A9
         E se eu te contar 
         E
Você nem acredita
F#m7(11)                A9
         Se eu tava brigando 
                     B9
Eu nem lembro o porquê

*http://www.cifraclub.com.br/henrique-e-juliano/mudando-de-assunto/

Refrão:

      E     B              C#m
Pra que brigar se o amor é isso
         G#m         A
É uma espécie de um vício
       E            B9
Mil maneiras de querer
      E     B                 C#m
Pra que brigar, chorar, ir embora
        G#m           A
Eu bem sei que nessa hora
        B9          E      B9
Vai me dar vontade de você

      E     B              C#m
Pra que brigar se o amor é isso
         G#m         A
É uma espécie de um vício
       E            B9
Mil maneiras de querer
      E     B                 C#m
Pra que brigar, chorar, ir embora
        G#m           A
Eu bem sei que nessa hora
        B9          E
Vai me dar vontade de você

Final:

F#m7(11)               A9
         Mudando de assunto 
       E
Cê tá tão bonita

Intro:

Parte 1


    E        B7       C#m      F#m
E|-------0--------2-------------------------|
B|-----0--------0----------5--4---4---------|
G|---1--------2----------6----------4-------|
D|---------------------6--------6-----6-----|
A|----------2--------4----------------------|
E|-0--------------------------4-------------|


Parte 2


    A          E        B7
E|---------0------0-------------2-----------|
B|-----0h2----0-----0------0----0-----------|
G|--------------1--------2---2--2-----------|
D|---2--------------------------1-----------|
A|-0-------------------2--------------------|
E|------------0-----------------------------|


Parte 3


    F#m      A9  E
E|----------0------------0------------------|
B|-----2----0-------0----0------------------|
G|-------2--2-----1---1--1------------------|
D|---4------2------------2------------------|
A|----------0-------------------------------|
E|-2------------0---------------------------|


Primeira Parte (2x):


    E        B7       C#m      G#m
E|-------0--------2-------------------------|
B|-----0--------0----------5--4---4---------|
G|---1--------2----------6----------4-------|
D|---------------------6--------6-----6-----|
A|----------2--------4----------------------|
E|-0--------------------------4-------------|



    A          E        B7
E|---------0------0-------------2-----------|
B|-----0h2----0-----0------0----0-----------|
G|--------------1--------2---2--2-----------|
D|---2--------------------------1-----------|
A|-0-------------------2--------------------|
E|------------0-----------------------------|


Pré-refrão:

Parte 1


   F#m7(11)  A9           E
E|-----0----------0--------------0----------|
B|-------0----------0--------0-----0--------|
G|---2----------2-----2----1---1-----1------|
D|------------2------------------------2----|
A|----------0-------------------------------|
E|-2---------------------0------------------|


Parte 2 (2x)


   F#m7(11)  A9           E
E|-----0-------------------------0----------|
B|-------0--------0h2-0------0-----0--------|
G|---2----------2----------1---1-----1------|
D|------------2------------------------2----|
A|----------0-------------------------------|
E|-2---------------------0------------------|


Parte 3


   F#m7(11)  A9           B9
E|-----0-------------------------2----------|
B|-------0--------0h2-0----------2----------|
G|---2----------2------------4---4----------|
D|------------2------------4---4-4----------|
A|----------0------------2-------2----------|
E|-2----------------------------------------|


Refrão:


    E        B       C#m       G#m
E|-0-----0----------------------------------|
B|-----0----4-----4--5-----5--4-----4-------|
G|---1----------4--------6--------4---------|
D|------------4--------6--------6-----------|
A|----------2--------4----------------------|
E|-0--------------------------4-------------|



    A        E        B9
E|---------------------------2--------------|
B|-2-----2--0-----0------------2------------|
G|-----2--------1--------4-------4----------|
D|---2--------2--------4---4-------4--------|
A|-0-----------------2----------------------|
E|----------0-------------------------------|



   E        B       C#m       G#m
E|-0-----0----------------------------------|
B|-----0----4-----4--5-----5--4-----4-------|
G|---1----------4--------6--------4---------|
D|------------4--------6--------6-----------|
A|----------2--------4----------------------|
E|-0--------------------------4-------------|



    A        B9    E
E|----------2-----------4------------------|
B|-2-----2--2-----------5------------------|
G|-----2----4---------4-4------------------|
D|---2------4-------6----------------------|
A|-0--------2-----7------------------------|
E|-----------------------------------------|


Final:



   F#m7(11)  A9            E
E|-------0------------0---0-----------------|
B|-----0----------0h2-----0-----------------|
G|---2----------2---------1-----------------|
D|------------2-----------2-----------------|
A|----------0-------------2-----------------|
E|-2----------------------0-----------------|
Добавлено: 27.10.2015
Вам также может быть интересно:
Другие материалы по этой песне:
  • Аккорды и текст

Страница создана 27.10.2015
http://primanota.ru/henrique-e-juliano/mudando-de-assunto-chords.htm
Привет, Гость.
Предлагаем пройти революционный курс по гитаре.
Подарок от PrimaNota.Ru, забирай!