PrimaNota.ru - самый крупный в мире бесплатный архив песенных текстов, аккордов, табулатур и нот


Henri Dikongue - Cest La Vie - таба, видео

Регистрация Запомнить меня
Войти через:  Facebook Google Twitter Vk Yandex Mail.ru

Henri Dikongue - Cest La Vie - таба, видео

Печатать
Просмотров: 118
-----------------------------------------------------------------------------
                      C'est la vie - Henri Dikongue
------------------------------------------------------------------------------
Tabbed by Frédéric ABA'A (abaa_frdric@yahoo.fr)


Verse 1
     
     D                                               G                           D 
E||-------2h3p2------------|-----------------2----|-----------------3----|----------------------|
B||------------------------|--3--------------3----|------------0---------|--0----3--------------|
G||--2---------------------|-------2---------2----|-------0--------------|------------2---------|
D||------------------------|------------0---------|----------------------|-------0---------0----|
A||------------------------|----------------------|--2-------------------|----------------------|
E||------------------------|----------------------|----------------------|----------------------|


                 A                              D       
--2-------------------|-----------------0----|-----------------|
-------3---------2----|------------2---------|--3--------------|
------------2---------|--2-------------------|-------2---------|
-----------------2----|-------2--------------|--0---------0----|
----------------------|----------------------|-----------------|
----------------------|----------------------|-----------------|
        G             D
Une naissance, un cri, 
          A         D
Une douleur, un bruit
                G        D
Un coeur très doux a vie
              A         D
Un coeur qui bat la vie
           G         D           A                 D
Je voudrais m'arrêter sur ce bonheur qui m'est donné
          G                      D  
Cette force jaillit de sa fragilité
       A                 D
Ne finit pas de m'étonner
             G        D        A                 D 
Balayer, balayer, balayer, laisser ma détresse où elle est
               G                   D
Tout paraît beau, tout paraît léger
              A                D
Comme si le monde avait changé
               G        D         A          D           
Ref: C'est la vie, la vie, la vie oh, la vie eh
     Elle est bien là divine amie, nous dévisage et nous sourit
     C'est la vie, la vie, la vie oh, la vie eh
     Elle est bien là divine amie, nous dévisage et nous sourit

 
-----------------6h4---|--4----4----4----|-----------------9h7---|---7----7----7----|
------------4----------|-----------------|------------7----------|------------------|
-------5---------------|-----------------|-------8---------------|------------------|
--6--------------------|-----------------|--9--------------------|------------------|
-----------------------|-----------------|-----------------------|------------------|
-----------------------|-----------------|-----------------------|------------------|

|-----------------6h4---|-4---4---4-|-------------3--|----------------------|
|------------4----------|-----------|---------0------|--0----3--------------|
|-------5---------------|-----------|-----0----------|------------2---------|
|--6--------------------|-----------|----------------|-------0---------0----|
|-----------------------|-----------|--2-------------|----------------------|
|-----------------------|-----------|----------------|----------------------|

--2-------------------|-----------------0----|-----------------|
-------3---------2----|------------2---------|--3--------------|
------------2---------|--2-------------------|-------2---------|
-----------------2----|-------2--------------|--0---------0----|
----------------------|----------------------|-----------------|
----------------------|----------------------|-----------------|

       


Verse 2

E||-------2h3p2------------|-----------------2----|-----------------3----|----------------------|
B||------------------------|--3--------------3----|------------0---------|--0----3--------------|
G||--2---------------------|-------2---------2----|-------0--------------|------------2---------|
D||------------------------|------------0---------|----------------------|-------0---------0----|
A||------------------------|----------------------|--2-------------------|----------------------|
E||------------------------|----------------------|----------------------|----------------------|


           
--2-------------------|-----------------0----|-----------------|
-------3---------2----|------------2---------|--3--------------|
------------2---------|--2-------------------|-------2---------|
-----------------2----|-------2--------------|--0---------0----|
----------------------|----------------------|-----------------|
----------------------|----------------------|-----------------|

Une caresse, une joie, une sourire, une voix
Une main tremblante, émois
Une âme qui vit de toi

je voudrais dire merci pour ce moment qui me grandit
C'est comme si je n'étais jamais né avant cet enfant nouveau né
Balayées, balayées, balayées, les blessures de mon passé
Tout parît beau, tout parît léger
Comme si le monde avait changé

Ref: C'est la vie, la vie, la vie oh, la vie eh
     C'est du mystère de la magie, je me sens père ça me ravit
     C'est la vie, la vie, la vie oh, la vie eh
     Elle est bien là divine la vie, me donne des ailes et des envies
     C'est la vie, la vie, la vie oh, la vie eh
     Elle est bien là divine la vie, nous dévisage et nous sourit
     C'est la vie, la vie, la vie oh, la vie eh
     Cette présence qui fait aussi, une existence de ma vie
     C'est la vie, la vie, la vie oh, la vie eh
     C'est du mystère de la magie, je vous sens belle ça me ravit
     
www.henridikongue.com


Tablature Legend
----------------
L - tied note
h - hammer on
p - pull off

Добавлено: 26.09.2013
Другие материалы по этой песне:
  • Аккорды и текст

Страница создана 26.09.2013
http://primanota.ru/henri-dikongue/cest-la-vie-chords.htm
Привет, Гость.
Предлагаем пройти революционный курс по гитаре.
Подарок от PrimaNota.Ru, забирай!