PrimaNota.ru - самый крупный в мире бесплатный архив песенных текстов, аккордов, табулатур и нот


Henny Vrienten - Lieske - аккорды и текст, видео

Регистрация Запомнить меня
Войти через:  Facebook Google Twitter Vk Yandex Mail.ru

Henny Vrienten - Lieske - аккорды и текст, видео

Печатать
Просмотров: 157
Уроки эстрадного вокала в Санкт-Петербурге
Lieske
Henny Vrienten
Henny Vrienten - Lieske
song: https://www.youtube.com/watch?v=Etd2gw6Zz_w

INTRO
   Em              G7M/D           Em      G7M/D   C
e|-----------------------------------------------------------------|
B|-------0-------0-------0---------------0-------0-------1---------|
G|-----0-------0-------0---0---0-------0-------0-------0---0---0---|
D|---5-------5-------4-------4---4---4-------4-------2-------2---2-|
A|---------7-------5-----------------------5-------3---------------|
E|-0-------------------------------0-------------------------------|

   C/E     C       Em
e|-------------------------------------------------------------------|
B|-------1---------------0-------------------------------------------|
G|-----0-------0-------0---0---0-------0---0---0-------0---0---0-----|
D|---2-------2---2---2-------2---2---2---2---2---2---2---2---2---2---|
A|---------3-------2-------------------------------------------------|
E|-0-------------------------------0---------------0---------------0-|

VERSE 1
      Em           G7M/D  
Je vertelt me elke dag
   C         G
Hetzelfde verhaal
            Am                Em
Maar het verhaal wordt steeds kleiner
    Am             Em
Met alsmaar minder woorden

   Em                 G7M/D      
De klok tikt traag en droog
   C            G
Je vertelt over vroeger
        Am         Em
Over je tirannieke vader
      Am            Em
En de dood van jouw moeder

PRE-CHORUS
           Em     G7M/D  
En als het donker wordt
           C       G
Doen ze je deur op slot
            Em    G7M/D  
Bang dat je lopen gaat
             C         G
Op zoek naar jezelf op straat

CHORUS
Am   C   G
Lie -ie -ske
G  C  G
Am    C   G 
 Lie -ie -ske

VERSE 2
    Em                    G7M/D  
Jij zoekt naar het juiste woord
         C               G
Maar dat woord wil nooit komen
            Am        Em
Het is voor altijd verloren
   Am             Em
Verdwaald in jouw dromen

         Em              G7M/D  
Jij hebt niks meer te verliezen
   C               G
En niks meer te verwachten
Am            Em
Alles lang verloren
     Am        Em
Weer bijna ongeboren

PRE-CHORUS
           Em     G7M/D  
En als het donker wordt
           C       G
Doen ze je deur op slot
            Em     G7M/D  
Met alle gordijnen dicht
            C      G
Tot aan het ochtendlicht

CHORUS
Am   C   G
Lie -ie -ske
G  C  G
Am    C   G 
 Lie -ie -ske

BRIDGE
       Am              Bm/A
Oh, ik weet nog hoe je zong
          C/A           Gsus/A
En hoe je lachte als je kookte
      G        G/A G/B C     C/B
Oh ik weet nog hoe je  rookte
      Am        D
Met onwennige gebaren
      Am         D
En je lachte onbedaarlijk


PRE-CHORUS
           Em     G7M/D  
Nu als het donker wordt
           C       G
Doen ze je deur op slot
            Em       G7M/D  
Daar lig je eenzaam, bang
             C          G
Wat duurt de nacht toch lang

CHORUS
Am   C   G
Lie -ie -ske
G  C  G
Am    C   G 
 Lie -ie -ske

OUTRO
Em            G7M/D  
Em  G7M/D     C
C             Em
Em

__________________________________

GEBRUIKTE AKKOORDEN (en variaties)

      G7M/D     Bm/A  C/A  Gsus/A
e|----2----------0-----0------0----|
B|----3------0---3-----5------3----|
G|----4--of--0---4-----5------4----|
D|----0------4---4-----5------5----|
A|-----------5---0-----0------0----|
E|---------------------------------|
Добавлено: 22.03.2015
Другие материалы по этой песне:
  • Аккорды и текст

Страница создана 22.03.2015
http://primanota.ru/henny-vrienten/lieske-chords.htm
Привет, Гость.
Предлагаем пройти революционный курс по гитаре.
Подарок от PrimaNota.Ru, забирай!