PrimaNota.ru - самый крупный в мире бесплатный архив песенных текстов, аккордов, табулатур и нот


Henan Drive - Midas - таба, видео

Регистрация Запомнить меня
Войти через:  Facebook Google Twitter Vk Yandex Mail.ru

Henan Drive - Midas - таба, видео

Печатать
Просмотров: 89
Hey. im new to this whole thing, and this is my first tab.

Been playin gutiar for a year, so there may be mistakes.

This if for midas, by a great Welsh band called Henan drive.

They can be found on www.myspace.com/henandrive

Henan Drive - Midas

Tuning - both guitars, Drop D

Guitar 1

 Intro/verse 0:00 -1:08,   2:27-3:06

e|------------------------------------|
b|------------------------------------|
g|---9--9-9---9--9-9--9--9-9---9--9-9-|
d|--9--9-----9--9----9--9-----9--9----|
a|-7--7-7-----------------------------|
d|---------7--7-7---6--6-6---7--7-7---|




Guitar break 1:08, 3:07
e|----------------------------|-------------------------|
b|----------------------------|-------------------------|
g|---9~---9~----9----9--------|--9-9-9-9-9-9-9-9-9------|
d|---9~---9~----9x8-9x8-------|--9-9-9-9-9-9-9-9-9------|
a|---7~---6~----7----6--------|--7-7-7-7-6-6-6-6-7------|
d|----------------------------|-------------------------|
  \___________   ___________ /
              \ /
               X2




Chorus 1:26, 3:24

e|---9---|
b|--10---|   clean bit is just this chord repeated clean… listen to         
g|-------|     song for rhythm.
d|-------|
a|-------|
d|-------|

e|-----| strum through, and end e|---|
b|-----| on lower D chord:      b|---|
g|--7--|                        g|---|
d|--7--|                        d|-0-|
a|--5--|                        a|-0-|
d|-----|                        d|-0-|

Do this twice, but second time (1:52), instead of ending on the lower D chord, strum:

e|--------------------------------|
b|--------------------------------|
g|---------7---7-----------7---7--|
d|-2---4---7---7---4---7---7---7--|
a|-2---4---5---5---4---7---5---5--|
d|-2---4-----------4---7----------|





Solo backing chords

e|------------------------------------------|            
b|------------------------------------------|                         
g|------------------------------------------|     x2                        
d|--4-------0---------7----------0----------|                            
a|--4x16----0x16------7x16-------0x16-------|                              
d|--4-------0---------7----------0----------|

             



Outro

e|----------------------------|
b|----------------------------|
g|----------------------------|
d|---7~---0~---4~---0~--------|
a|---7~---0~---4~---0~--------|
d|---7~---0~---4~---0~--------|










Guitar 2   

Intro 0:13

e|----------------------------------------------------|
b|---10~----9~----10~----10~----12~--10~---9~----10~--|
g|----9~------------------9~--------------------------|
d|----7~------------------7~--------------------------|
a|----------------------------------------------------|
d|----------------------------------------------------|

e|-------------------------------------------------|
b|-------------------------------------------------|
g|----------6----6-7-6-------------4-----4-2-1-2---|            x2     
d|-----9-9---9~--------9-----9-9-----2~------------|
a|--7-7-7-7~--------------7-7-7-7~-----------------|
d|-------------------------------------------------|



Verse 0:41,  2:39

e|----5~----4~----5~--------------------------------------| 
b|--------------------------10~----12-10~--9~---10~-------|
g|---------------------------9~---------------------------|
d|---------------------------8~---------------------------|
a|--------------------------------------------------------|
d|--------------------------------------------------------|

e|-------------------------------------------------|
b|-------------------------------------------------|
g|----------6----6-7-6-------------4-----4-2-1-2---|            x2     
d|-----9-9---9~--------9-----9-9-----2~------------|
a|--7-7-7-7~--------------7-7-7-7~-----------------|
d|-------------------------------------------------|





Guitar Break, 1:08, 3:07 w/ distortion

e|---------------------|
b|-----10~--------9~---|
g|--9~----9~---8~----8~|
d|---------------------|
a|---------------------|
d|---------------------|

e|----------------------|
b|------10-------9------|
g|--8-9----9-8-9---9----|
d|----------------------|
a|----------------------|
d|----------------------|

e|---------------------|
b|-----10~--------9~---|
g|--9~----9~---8~----8~|
d|---------------------|
a|---------------------|
d|---------------------|

e|----------------------|
b|------10-------9------|
g|--8-9----9-8-9---9----|
d|----------------------|
a|----------------------|
d|----------------------|

e|----------------------|         |----|
b|------10-------9------| end on  |-10-|
g|--8-9----9-8-9---9----|         |--9-|
d|----------------------|         |----|
a|----------------------|         |----|
d|----------------------|         |----|

Chorus 1:26, 

|---9---|
|--10---|   clean bit is just this chord repeated… listen to song for
|-------|   rhythm.
|-------|
|-------|
|-------|


|----------9~--------------9----|
|---7--9------------7---9-------|
|-------------------------------|      x2    w/ distortion
|-------------------------------|
|-------------------------------|
|-------------------------------|


|--------------------12-12--10-10--9-|
|------------------------------------|
|------9-----------------------------|
|---7--------------------------------|
|------------------------------------|
|------------------------------------|


|----------9~-------------9-----|
|---9--10-----------9-10--------|
|-------------------------------|      x2    w/ distortion
|-------------------------------|
|-------------------------------|
|-------------------------------|

|---12-12-12-12-10--9--10--9--|  end on |---|
|---10-10-10-10-10-10-10-10---|         |---|
|--strum-½-a-bar-of-each-note-|         |-2-|
|-----------------------------|         |-2-|
|-----------------------------|         |-0-|
|-----------------------------|         |---|


Solo 4:24

e|--12x16--9x16--14x16--9x16--|
b|----------------------------|
g|----------------------------|
d|----------------------------|
a|----------------------------|
d|----------------------------|

e|--------17-------19-------21-------19-------21--|
b|--17-17----17-17----17-17----17-17----17-17-----|
g|------------------------------------------------|   x3
d|------------------------------------------------|
a|------------------------------------------------|
d|------------------------------------------------|

e|-------17-17-17-16-16-16-16-17-|
b|-17-17-17-17-17-17-17-17-17-17-|
g|-------------------------------|
d|-------------------------------|
a|-------------------------------|
d|-------------------------------|


Outro 4:50

|------------------------------------------------------------|
|---10---------------10--------------------10----------------|
|---------9-------------------9---------------------9--------|
|---------------7---------------------7----------------------|
|------------------------------------------------------------|
|------------------------------------------------------------|


|------------------------------------------------------------|
|---10---------------10--------------------------------------|
|---------9-------------------9--------------------9---------|
|---------------7---------------------7-------7--------------|
|------------------------------------------------------------|
|------------------------------------------------------------|



|------------------------------------------------------------|
|---10---------------10--------------------10----------------|
|---------9-------------------9---------------------9--------|
|---------------7---------------------7----------------------|
|------------------------------------------------------------|
|------------------------------------------------------------|


|------------------------------------------------------------|
|---10---------------10--------------------------------------|
|---------9-------------------9--------------------9---------|
|---------------7---------------------7-------7--------------|
|------------------------------------------------------------|
|------------------------------------------------------------|


|------------------------------------------------------------|
|---10---------------10--------------------10----------------|
|---------9-------------------9---------------------9--------|
|---------------7---------------------7----------------------|
|------------------------------------------------------------|
|------------------------------------------------------------|


|------------------------------------------------------------|
|---10---------------10--------------------10----------------|
|---------9-------------------9---------------------9--------|
|---------------7---------------------7----------------------|
|------------------------------------------------------------|
|------------------------------------------------------------|


End.

Thats it.

There's probably a few mistakes in there, but like i said, i'm new to this.

please, rate and if you wanna contact me, add my msn: gez__@hotmail.co.uk
Добавлено: 19.04.2012
Вам также может быть интересно:
Другие материалы по этой песне:
  • Аккорды и текст

Страница создана 19.04.2012
http://primanota.ru/henan-drive/midas-chords.htm
Привет, Гость.
Предлагаем пройти революционный курс по гитаре.
Подарок от PrimaNota.Ru, забирай!