PrimaNota.ru - самый крупный в мире бесплатный архив песенных текстов, аккордов, табулатур и нот


Helstar - Burning Star - таба, видео

Регистрация Запомнить меня
Войти через:  Facebook Google Twitter Vk Yandex Mail.ru

Helstar - Burning Star - таба, видео

Печатать
Просмотров: 149
intro                          x2   main riff                Eb D  x4
1+----------------------------------+-----------------------------------+
 |----------------------------------|--------------------------|--|-----|
 |-2---4---5---2---4-------2-------*|--------------------------|--|----*|
 |---2---2---2---2---2-5-2---2-0-2-*|-----2-----3-----2--------|--|----*|
 |----------------------------------|-0-3---0-3---0-3---0-3-0--/--/-----|
 +----------------------------------+-----------------------------------+
  verse                       Eb D  x3                   Eb D  D C  C B  B
2+-------------------------------------+------------------------------------+
 |----------------------------|--|-----|------------------|-|--|-|--|-|--|--|
 |----------------------------|--|-----|------------------|-|--|-|--|-|--|--|
 |----------------------------|--|-----|------------------|\|--|\|--|\|--|--|
 |-0-0-0-0=0-0-0-0-0-0-0-0-0--/--/-----|-0-0-0-0-0-0-0-0--/-/--/-/--/-/--/--|
 +-------------------------------------+------------------------------------+
  chorus            Bb A  G                    |1.C# Bb A   |2.C# Bb A
3+---------------------------------------------+------------+--------------+
 |------------------|--|--|--------------------|--|--|--|---|--|--|--|-----|
 |------------------|--|--|--------------------|--|--|--|--*|--|--|--|----*|
 |------------------|--|--|--------------------|--|--|--|--*|--|--|--|----*|
 |------------------/--/--/--------------------|--/--/--/---|--/--/--/-----|
 +-0-0-0-0-0-0-0-0------------0-0-0-0-0-0-0-0--+------------+-----------3--+
  solo                                              |1. D  C#  |2. G  A
4+--------------------------------------------------+----------+-----------+
 |--------------------------------------------------|---|--|---|---|--|----|
 |--------------------------------------------------|---|--|---|---|--|---*|
 |--------------------------------------------------|---|--|---|---|--|---*|
 |-0^2-2-2-2-2-2-2-2-2-2-2-2-2-2-2-0^2-2-2-2-2-2-2--|---/--/---|---/--/----|
 +--------------------------------------------------+----------+-----------+
 ending           C# Bb A  F# F  C# Bb    A
5+-------------------------------------------+
 |----------------|--|--|--|--|--|--|-----|--|
 |----------------|--|--|--|--|--|--|-----|--|
 |-----2-----3----|--|--|--|--|--|--|-----|--|
 |-0-3---0-3---0--/--/--/--/--/--/--/-----/--|
 +-------------------------------------------+
Добавлено: 27.06.2012
Вам также может быть интересно:
Другие материалы по этой песне:

Страница создана 18.05.2012
http://primanota.ru/helstar/burning-star-chords.htm
Привет, Гость.
Предлагаем пройти революционный курс по гитаре.
Подарок от PrimaNota.Ru, забирай!