PrimaNota.ru - самый крупный в мире бесплатный архив песенных текстов, аккордов, табулатур и нот


Helmet - Speechless - аккорды и текст, таба, видео

Регистрация Запомнить меня
Войти через:  Facebook Google Twitter Vk Yandex Mail.ru

Helmet - Speechless - аккорды и текст, таба, видео

Печатать
Просмотров: 210
Уроки эстрадного вокала в Санкт-Петербурге
Авторы музыки: Page Hamilton
Авторы текста: Page Hamilton
Speechless
Helmet
Speechless by Helmet

With Drop-D tuning and distortion
E-------------------------------------------------------------------|
B-------------------------------------------------------------------|
G-------------------------------------------------------------------|
D-5~~3-2-1-1-1-1....0--------0------5-2-3-0---0--X-X-X-X-X--5-2-3-0-|
A-5~~3-2-1-1-1-1....0--------0------5-2-3-0---0--X-X-X-X-X--5-2-3-0-|
D-5~~3-2-1-1-1-1....0--------0------5-2-3-0---0--X-X-X-X-X--5-2-3-0-|
 {======Repeated 3 times======}                     {Repeated 2 times}
E---------------------------------------------------------------------------|
B---------------------------------------------------------------------------|
G---------------------------------------------------------------------------|
D------------0----------5-2-3-0----0--X-X-X-X-X-----3--3-3-3-2--2-2-2----0--|
A------------0----------5-2-3-0----0--X-X-X-X-X-----3--3-3-3-2--2-2-2----0--|
D------------0----------5-2-3-0----0--X-X-X-X-X-----3--3-3-3-2--2-2-2----0--|

E---------------------------------------------------------------------------|
B---------------------------------------------------------------------------|
G---------------------------------------------------------------------------|
D----0----------5-2-3-0--------0--X-X-X-X-X--5-2-3-0----------0-----5-2-3-0-|
A----0----------5-2-3-0--------0--X-X-X-X-X--5-2-3-0----------0-----5-2-3-0-|
D----0----------5-2-3-0--------0--X-X-X-X-X--5-2-3-0----------0-----5-2-3-0-|

                         {=Repeated 8 times=}
E------------------------------------------------------------------------|
B------------------------------------------------------------------------|
G------------------------------------------------------------------------|
D----------------0------3--3-3-3-2--2-2-2---6-6-7-7----3--3-3-3-2--2-2-2-|
A----------------0------3--3-3-3-2--2-2-2---6-6-7-7----3--3-3-3-2--2-2-2-|
D----------------0------3--3-3-3-2--2-2-2---6-6-7-7----3--3-3-3-2--2-2-2-|
   {===========Repeated 3 times===========} {Repeated 12 times}
E--------------------------------------------------------------|
B--------------------------------------------------------------|
G--------------------------------------------------------------|
D--7--7-7-7-8--8-8-8-9--9-9-9-10--10-10-10----0-2-3--0-2-2-3-3-|
A--7--7-7-7-8--8-8-8-9--9-9-9-10--10-10-10----0-2-3--0-2-2-3-3-|
D--7--7-7-7-8--8-8-8-9--9-9-9-10--10-10-10----0-2-3--0-2-2-3-3-|
                                                ^ Solo jumps in after 1 1/2
  {Repeated 16 times}  E----------------------------|
B---------------------------------------------------|
G---------------------------------------------------|
D--3--3-3-3-2--2-2-2----2~~~------------------------|
A--3--3-3-3-2--2-2-2----2~~~------------------------|
D--3--3-3-3-2--2-2-2----2~~~------------------------|
Sorry I couldn't tab the solo, but this tab souds good and is probably
pretty close.  If you have any questions, comments, the solo, etc. please
E-Mail me at HANA31B@PRODIGY.COM
           Justin


From mail.prodigy.com!HANA31B Tue Mar 14 23:18:03 1995
Return-Path: 
 
To: guitar@nevada.edu
Subject: Guitar tab:Corrected Speechless
Status: RO

Speechless by Helmet
With Drop-D tuning and distortion
E-------------------------------------------------------------------|
B-------------------------------------------------------------------|
G-------------------------------------------------------------------|
D-5~~3-2-1-1-1-1....0--------0------5-2-3-0---0--X-X-X-X-X--5-2-3-0-|
A-5~~3-2-1-1-1-1....0--------0------5-2-3-0---0--X-X-X-X-X--5-2-3-0-|
D-5~~3-2-1-1-1-1....0--------0------5-2-3-0---0--X-X-X-X-X--5-2-3-0-|
  {====Repeated 3 times====}                    {Repeated 2 times}
E---------------------------------------------------------------------------|
B---------------------------------------------------------------------------|
G---------------------------------------------------------------------------|
D----------0--------5-2-3-0----0--X-X-X-X-X-----3--3-3-3-2--2-2-2----0------|
A----------0--------5-2-3-0----0--X-X-X-X-X-----3--3-3-3-2--2-2-2----0------|
D----------0--------5-2-3-0----0--X-X-X-X-X-----3--3-3-3-2--2-2-2----0------|
E---------------------------------------------------------------------------|
B---------------------------------------------------------------------------|
G---------------------------------------------------------------------------|
D----0-------5-2-3-0-----------0--X-X-X-X-X--5-2-3-0----------0-----5-2-3-0-|
A----0-------5-2-3-0-----------0--X-X-X-X-X--5-2-3-0----------0-----5-2-3-0-|
D----0-------5-2-3-0-----------0--X-X-X-X-X--5-2-3-0----------0-----5-2-3=0-|

                     {Repeated 8 times}
E---------------------------------------------------------------------|
B---------------------------------------------------------------------|
G---------------------------------------------------------------------|
D--------------0------3--3-3-3-2--2-2-2--6-6-7-7----3--3-3-3-2--2-2-2-|
A--------------0------3--3-3-3-2--2-2-2--6-6-7-7----3--3-3-3-2--2-2-2-|
D--------------0------3--3-3-3-2--2-2-2--6-6-7-7----3--3-3-3-2--2-2-2-|
   {===========Repeated 3 times===========} {Repeated 12 times}
E--------------------------------------------------------------|
B--------------------------------------------------------------|
G--------------------------------------------------------------|
D--7--7-7-7-8--8-8-8-9--9-9-9-10--10-10-10----0-2-3--0-2-2-3-4-|
A--7--7-7-7-8--8-8-8-9--9-9-9-10--10-10-10----0-2-3--0-2-2-3-4-|
D--7--7-7-7-8--8-8-8-9--9-9-9-10--10-10-10----0-2-3--0-2-2-3-4-|
                                                ^ Solo jumps in after 1 1/2

{Repeated 16 times}
E----------------------------|
B----------------------------|
G----------------------------|
D--3--3-3-3-2--2-2-2----2~~~-|
A--3--3-3-3-2--2-2-2----2~~~-|
D--3--3-3-3-2--2-2-2----2~~~-|
Sorry I couldn't tab the solo, but the parts I could tab sound pretty
close.  If you have the solo or any corrections please E-Mail me at
hana31b@prodigy.com
Justin



xM
Times New Roman
Добавлено: 07.06.2012
Другие материалы по этой песне:

Страница создана 11.04.2012
http://primanota.ru/helmet/speechless-chords.htm
Привет, Гость.
Предлагаем пройти революционный курс по гитаре.
Подарок от PrimaNota.Ru, забирай!