PrimaNota.ru - самый крупный в мире бесплатный архив песенных текстов, аккордов, табулатур и нот


Hellyeah - One Thing - текст песни, таба, бас-таба, видео

Регистрация Запомнить меня
Войти через:  Facebook Google Twitter Vk Yandex Mail.ru

Hellyeah - One Thing - текст песни, таба, бас-таба, видео

Печатать
Просмотров: 172
This song is tuned way down to Drop A#

c--------|
g--------|
d#-------|
a#-------|
f--------|
a#--12/--|

Verses

c--------------------------------------|
g--------------------------------------|
d#-------------------------------------|
a#-------------------------------------|
f-----------------------------------3--|
a#--0-0-6-0-6-0-00-6-0-0-6-0-6-0-00----|  Repeats 10X

c---4444444444444444-|
g---3333333333333333-|
d#--1111111111111111
a#------------------|
f-------------------|  This Chord comes in the left side after the main riff
a#------------------|                      plays 4X.

Chorus

c----------------------------------|
g----------------------------------|
d#--------------------5-------777--|
a#--0-2-3-0-6-5-0-2-3-5-0-2-3-777--|
f---0-2-3-0-6-5-0-2-3-3-0-2-3-555--|
a#--0-2-3-0-6-5-0-2-3---0-2-3------|

Interlude

c-------------------------------------|
g-------------------------------------|
d#------------------------------------|
a#--55555555555555574444444511110000--|
f---55555555555555574444444511110000--|   This is the rythme part.
a#--55555555555555574444444511110000--|  It's pretty much all chugs.

This is the high guitar work in the interlude part

c---------------------------5555----------------------------------|
g---888888888888888888888888----77777777777788884444444433333333--|
d#----------------------------------------------------------------|
a#----------------------------------------------------------------|
f-----------------------------------------------------------------|
a#----------------------------------------------------------------|
                           (10)
c-----------777777777777777710101010101010109999999999999999999999999999\--|
g---88888888---------------------------------------------------------------|
d#-------------------------------------------------------------------------|
a#-------------------------------------------------------------------------|
f--------------------------------------------------------------------------|
a#-------------------------------------------------------------------------|

c------10-----------------------------------------7^^^^---|
g---8-----8-----------------------8^^^^^----------7^^^^---|
d#-------------7^^^^5h7-57875787577^^^^^5787578757--------|
a#--5-------5---------------------5^^^^^------------------|
f---------------------------------------------------------|
a#--------------------------------------------------------|

c-------------8^^^^^^----------14^^^^^^-----------11-10-11^^^^10p8h10^^^--|
g-------------8^^^^^^----------15^^^^^^-----------------------------------|
d#--5787578757-------5787578757-------------------------------------------|
a#-------------------------------------5-8-7-5-6-5------------------------|
f-------------------------------------------------------------------------|
a#------------------------------------------------------------------------|

This is the waivering
unison bend I transposed
the notes the g string
roughly hits.
    (15th fret)
c---15151515151515151515151515151515------|
g---18-18-/19 19 19 18 19 19 19 19 19^^---|
d#----------------------------------------|
a#----------------------------------------|
f-----------------------------------------|
a#----------------------------------------|

c---------------------------------------------------|
g---/151515151212141414141010121212128899997788888--|
d#--------------------------------------------------|
a#--------------------------------------------------|
f---------------------------------------------------|
a#--------------------------------------------------|

c---------------------------------------(10^^^^)--|
g---7p6p3h7p6p3h7p6p3h7p6p3h7p6p3h7p6p3-----------|
d#------------------------------------------------|
a#------------------------------------------------|
f-------------------------------------------------|
a#------------------------------------------------|

Transistion to the main riff.

c--------------------------------------|
g--------------------------------------|
d#-------------------------------------|
a#-------------------------------------|
f--------------------------------------|
a#--00-000-000-000-000-000-000-00012\--|

End riff

c----------------------|
g----------------------|
d#--7----5-------------|
a#--7-6--5-5-----------|
f---5-6--3-5-----------|
a#----6----5----00000--|
Добавлено: 25.02.2012
Другие материалы по этой песне:

Страница создана 25.02.2012
http://primanota.ru/hellyeah/one-thing-chords.htm
Привет, Гость.
Предлагаем пройти революционный курс по гитаре.
Подарок от PrimaNota.Ru, забирай!