PrimaNota.ru - самый крупный в мире бесплатный архив песенных текстов, аккордов, табулатур и нот


Helloween - Paint A New World - текст песни, таба, видео

Регистрация Запомнить меня
Войти через:  Facebook Google Twitter Vk Yandex Mail.ru

Helloween - Paint A New World - текст песни, таба, видео

Печатать
Просмотров: 198
-------------------------------------------------------------------------------
                             PAINT A NEW WORLD- HELLOWEEN
-------------------------------------------------------------------------------
Tabbed by: Dustin Wolfe
Email: emericacore@hotmail.com

Tuning:Drop D

e|---------------------------------------------------------------------------|
B|---------------------------------------------------------------------------|
G|---------------------------------------------------------------------------|
D|---------------------------------------------------------------------------|
A|0/8\3/12\0---0-----------2---------3----------5-----------8p7p5-7-5-3-5-2-3|
E|0/8\3/12\0---0-000000000020000000003000000000050000000000-8p7p5-7-5-3-5-2-3|
twice, then:

e|/15-11-11~--13-15-13-10-10~-12-13----14~~-13-12----------------------------|  
B|----------------------------------14------------14~~-----------------------|
G|---------------------------------------------------------------------------|
D|---------------------------------------------------------------------------|
A|---------------------------------------------------------------------------|
E|---------------------------------------------------------------------------|

e|/15-11-11~--13-15-13-17~-15h17p15h17p15-14h15p14h15------------------------| 
B|----------------------------------------------------17h18p17h18-15h17p15h17|
G|---------------------------------------------------------------------------|
D|---------------------------------------------------------------------------|
A|---------------------------------------------------------------------------|
E|---------------------------------------------------------------------------|
                                           PM-------------------------------|
e|---------------------------------------------------------------------------|
B|----b15--b15---------b17--b17-----b19\0------------------------------------|
G|---------------------------------------------------------------------------|
D|---------------------------------------------------------------------------|
A|---------------------------------------------------------0-0-0--00-0-0-0---|
E|-----------------------------------------0000000-0000000-0-0-0--00-0-0-0---|
  PM---------------|
e|---------------------------------------------------------------------------|
B|---------------------------------------------------------------------------|
G|---------------------------------------------------------------------------|
D|---------------------------------------------------------------------------|
A|00-0-0-0--00-0-0-0--0-2-3-5------------------------------------------------|
E|00-0-0-0--00-0-0-0--0-2-3-5-----and so on and so forth...more to come!-----


| /  slide up
| \  slide down
| h  hammer-on
| p  pull-off
| ~  vibrato
| +  harmonic
| x  Mute note
===============================================================================
Добавлено: 08.05.2012
Другие материалы по этой песне:
  • Аккорды и текст

Страница создана 08.05.2012
http://primanota.ru/helloween/paint-a-new-world-chords.htm
Привет, Гость.
Предлагаем пройти революционный курс по гитаре.
Подарок от PrimaNota.Ru, забирай!