PrimaNota.ru - самый крупный в мире бесплатный архив песенных текстов, аккордов, табулатур и нот


Helloween - Livin Aint No Crime - текст песни, таба, видео

Регистрация Запомнить меня
Войти через:  Facebook Google Twitter Vk Yandex Mail.ru

Helloween - Livin Aint No Crime - текст песни, таба, видео

Печатать
Просмотров: 127
[\-Livin'-aint-no-Crime-/]
[||-----Helloween------||]
[/------I-Want-Out------\]

Intro
 
 Part 1 2x
E|----------------------|
B|----------------------|
G|----------------------|
D|----------------------|
A|-15\3-3-3-3-3-3-3-3-3-|
e|----------------------|

The second time, Guitar 2 comes in with the same simple riff. Now, bass dives and thus;

 Part 2
E|-------------------------------------------------
B|-------------------------------------------------
G|-------------------------------------------------
D|---------5-3-2-----------------------------------
A|-3-2-3-5-------5-3-2-------------5-3-2-----2-3-5-
e|---------------------5-3-1-0-1-3-------3-5-------

E ---------------------------------------------------|--------------------|
B ---------------------------------------------------|--------------------|
G ---------------------------------------------------|--------------------|
D ---------5-3-2-------------------------------------|--------------------|
A -3p2h3-5-------5-3-2-------------5-3-2-----2-3-5-3-|-(3)-tremolo-thing--|
e ---------------------5-3-1-0-1-3-------3-5---------|--------------------|

Verse 1

  Come hither to this place and let your minds fly free
  For that's the only way how everyone should be

E|---------------------------------------------|
B|---------------------------------------------|
G|---------------------------------------------|
D|-5-----------------------------5-------------|
A|-3--7--------3--------5--3-3-3-3-3p2---------|
e|----5--1-1-1-1--3-3-3-3--------------5-3-2-0-|
      P.M[___]    [___]    [___]

Verse 2

  We all need something that we can keep on living for
  No one needs to tell us what we're doing anymore

Chorus

  Head on, head on steady, until the end of time
  Living, living ready, for living ain't no crime

E|-----------------------------------------------------
B|-----------------------------------------------------
G|-----------------------------------------------------
D|-5-5-5-----------------------------------------------
A|-3-3-3--7-7-7--------5--------3--------5-3p2---------
e|--------5-5-5--3-3-3-3--1-1-1-1--3-3-3-3-----5-3-2-0-
          P.M[___]   [___]   [___]

E|-----------------------------------------------------|
B|-----------------------------------------------------|
G|-----------------------------------------------------|
D|-5-5-5------------------------------5----------------|
A|-3-3-3--7-7-7--------3--------5--3-3-3-3-3p2---------|
e|--------5-5-5--1-1-1-1--3-3-3-3--------------5-3-2-0-|
          P.M[___]    [___]    [___]
Verse 3

  So tell me, aren't we all just one holding the flame
  Against all babbits in this world who build up frames

E|------------------------------------------------------------|
B|------------------------------------------------------------|
G|------------------------------------------------------------|
D|-5-------2------------------------------------5-------------|
A|-3-2p3p5---7-------3--------3--------5--3-3-3-3-3p2---------|
e|-----------5-3p5p7----1-1-1-1--3-3-3-3--------------5-3-2-0-|

Verse 4 (same riff as Riff Verse 2)

  Some time or tomorrow we will prove them traitors wrong
  So make your dreams come true for it musn't take to long

Play Chorus all over again and then the PRE SOLO, as I prefer to call it

e|---------------------------------------------------------------------|
B|---------------------------------------------------------------------|
G|---------------------------------------------------------------------|
D|-----------7------------5-------------------7------------------------|
A|-0-0-0-0-0-5--0-0-0-0-0-3-5--5-5--0-0-0-0-0-5--0-0-0-0-0-3p2---------|
E|--------------------------3--3-3-----------------------------5-3-2-0-|
P.M[_______]    [_______]           [_______]    [_______]

Repeat this two times then play on open A about 12 times, now solo comes, wich im working on right now.
SOLO
Verse 5 (same riff as Verse 1)

  Now what's the use of living here and what's it worth
  Don't ask but throw away your fear enjoy this earth

Verse 6 (same riff as Verse 2)

  You are here to live don't think you're here to understand
  Don't forget you're no one without someones helping hand

Repeat Chorus twice

Outro is much like then intro, you play the intro riff 3 times,
then some other guitars starts playing higher pitches
And  NO  I don't have time to transcribe that thankyou
    ----
Добавлено: 18.06.2012
Другие материалы по этой песне:
  • Аккорды и текст

Страница создана 11.04.2012
http://primanota.ru/helloween/livin-aint-no-crime-chords.htm
Привет, Гость.
Предлагаем пройти революционный курс по гитаре.
Подарок от PrimaNota.Ru, забирай!