PrimaNota.ru - самый крупный в мире бесплатный архив песенных текстов, аккордов, табулатур и нот


Helloween - King Will Be Kings - таба, видео

Регистрация Запомнить меня
Войти через:  Facebook Google Twitter Vk Yandex Mail.ru

Helloween - King Will Be Kings - таба, видео

Печатать
Просмотров: 103
As recorded by Helloween
(From the 1996 Album THE TIME OF THE OATH)

Transcribed by Ivan - (peekaboo104@hotmail.com)
        

Words and Music by Michael Weikath

Gtr I (Eb Ab Db Gb Bb Eb) - 'Untitled'
Gtr II (Eb Ab Db Gb Bb Eb) - 'Untitled'
Gtr III (Eb Ab Db Gb Bb Eb) - 'Untitled'

 Intro
  Moderately Q=140
        E5          G5   F#5    E5
 6/8
  Gtr I
                                     PM------------------|
          H.        Q.   Q.     Q.   E E E    E  E E E E E           H.
|-----------------|-----------|------------|---------------|---------------|
|-----------------|-----------|------------|---------------|---------------|
|-----------------|-----------|------------|---------------|---------------|
|-----------------|-----------|------------|---------------|---------------|
|---------2-------|-5----4----|-2----------|---------------|---------2-----|
|---------0-------|-3----2----|-0----0-0-0-|--0--0-0-0-0-0-|---------0-----|
|
| Gtr II
|         H.        Q.   Q.     H.           +H.                     H.
|-----------------|-----------|------------|---------------|---------------|
|-----------------|-----------|------------|---------------|---------------|
|-----------------|-----------|------------|---------------|---------------|
|-----------------|-----------|------------|---------------|---------------|
|---------2-------|-5----4----|-2----------|-(2)-----------|---------2-----|
|---------0-------|-3----2----|-0----------|-(0)-----------|---------0-----|
|
| Gtr III
|         ~~~~                  ~~~~~~~~~~~~~~~~~                    ~~~~
|  a     +H.        Q.   Q.     H.           +H.              a     +H.
|-----------------|-----------|------------|---------------|---------------|
|-10b12-(10)------|-8----7----|------------|---------------|-10b12-(10)----|
|-----------------|-----------|-9----------|-(9)-----------|---------------|
|-----------------|-----------|------------|---------------|---------------|
|-----------------|-----------|------------|---------------|---------------|
|-----------------|-----------|------------|---------------|---------------|


  G5   B5               A5
  Q.    Q.                H.            +H.
|--------------|---------------------|-----------------|
|--------------|---------------------|-----------------|
|--------------|---------------------|-----------------|
|-------4------|----------2----------|--(2)------------|
|-5-----2------|----------0----------|--(0)------------|
|-3------------|---------------------|-----------------|
|
|                              PM--------------------|
| Q.    Q.                Q.   E E E     E   E E E E E
|--------------|---------------------|-----------------|
|--------------|---------------------|-----------------|
|--------------|---------------------|-----------------|
|-------4------|----------2----------|-----------------|
|-5-----2------|----------0----0-0-0-|---0---0-0-0-0-0-|
|-3------------|---------------------|-----------------|
|
|                         ~~~~
| Q.   +Q    E    a      +H.            +H.
|--------------|---------------------|-----------------|
|-8----(8)--12-|-12b13==(12)---------|-(12)r-----------|
|--------------|---------------------|-----------------|
|--------------|---------------------|-----------------|
|--------------|---------------------|-----------------|
|--------------|---------------------|-----------------|


         D5          G5            F#5
           H.         Q.            Q.
|------------------|---------------------|
|------------------|---------------------|
|------------------|---------------------|
|----------7-------|---------------------|
|----------5-------|--5-------------4----|
|------------------|--3-------------2----|
|
|          H.         Q.            Q.
|------------------|---------------------|
|------------------|---------------------|
|------------------|---------------------|
|----------7-------|---------------------|
|----------5-------|--5-------------4----|
|------------------|--3-------------2----|
|
|  a      +H.         E   +E   +E   Q.
|------------------|---------------------|
|-12b13==(12)------|-12--(12)r(12)-10----|
|------------------|---------------------|
|------------------|---------------------|
|------------------|---------------------|
|------------------|---------------------|


  D5                                                        A5
  H.              +H.                       H.         Q.    Q.
|---------------|-------------------|---------------|-------------------||
|---------------|-------------------|---------------|-------------------||
|---------------|-------------------|---------------|-------------------||
|-7-------------|-(7)---------------|-------7-------|--7----------------||
|-5-------------|-(5)---------------|-------5-------|--5-----7----------||
|---------------|-------------------|---------------|--------5----------||
|
|         PM----------------------|
| Q.      E E E    E      E E E E E         H.         Q.    Q.
|---------------|-------------------|---------------|-------------------||
|---------------|-------------------|---------------|-------------------||
|---------------|-------------------|---------------|-------------------||
|-7-------7-7-7-|--7------7-7-7-7-7-|-------7-------|--7----------------||
|-5-------5-5-5-|--5------5-5-5-5-5-|-------5-------|--5-----7----------||
|---------------|-------------------|---------------|--------5----------||
|
| H.              +H.                 a    +H.         Q.    Q    E
|---------------|-------------------|---------------|-10----10----------||
|-7tr10---------|-(7tr10)-----------|-8b10-(8)------|------------10b12--||
|---------------|-------------------|---------------|-------------------||
|---------------|-------------------|---------------|-------------------||
|---------------|-------------------|---------------|-------------------||
|---------------|-------------------|---------------|-------------------||


  Faster Q=280
  (Eb)                 (F#)
 4/4
    PM-----------------------------------
    E  E E E E E E E    E E E E E E E E
|--------------------|------------------|
|--------------------|------------------|
|--------------------|------------------|
|--------------------|------------------|
|---6--6-6-6-6-6-6-6-|--9-9-9-9-9-9-9-9-|
|--------------------|------------------|
|
|   PM-----------------------------------
|   E  E E E E E E E    E E E E E E E E
|--------------------|------------------|
|--------------------|------------------|
|--------------------|------------------|
|--------------------|------------------|
|--------------------|--6-6-6-6-6-6-6-6-|
|---7--7-7-7-7-7-7-7-|------------------|
|
|   ~~~~~~~~~~~~~~~~~~~~~~
|  +W                   W
|--------------------|-11---------------|
|-(10)---------------|------------------|
|--------------------|------------------|
|--------------------|------------------|
|--------------------|------------------|
|--------------------|------------------|


        (B)                        (Eb)
 ---------------------------------------------------|
          E  E E E E E E E           E  E E E E E E E
|--------------------------|--------------------------||
|--------------------------|--------------------------||
|--------------------------|---------8--8-8-8-8-8-8-8-||
|---------9--9-9-9-9-9-9-9-|--------------------------||
|--------------------------|--------------------------||
|--------------------------|--------------------------||
|
|---------------------------------------------------|
|         E  E E E E E E E           E  E E E E E E E
|--------------------------|--------------------------||
|--------------------------|--------------------------||
|--------------------------|--------------------------||
|--------------------------|---------7--7-7-7-7-7-7-7-||
|---------9--9-9-9-9-9-9-9-|--------------------------||
|--------------------------|--------------------------||
|
|         ~~~~                       ~~~~
|  a     +W                   a     +W
|-12b14-(12)---------------|-15b17-(15)---------------||
|--------------------------|--------------------------||
|--------------------------|--------------------------||
|--------------------------|--------------------------||
|--------------------------|--------------------------||
|--------------------------|--------------------------||


  E5                G5      F#5       E5
  PM------------------------------------------------------------------|
  E E E E E E E E   E E E E E E E E   E E E E E E E E   E E E E E E E E
|-----------------|-----------------|-----------------|-----------------|
|-----------------|-----------------|-----------------|-----------------|
|-----------------|-----------------|-----------------|-----------------|
|-----------------|-----------------|-----------------|-----------------|
|-2-2-2-2-2-2-2-2-|-5-5-5-5-4-4-4-4-|-2-2-2-2-2-2-2-2-|-2-2-2-2-2-2-2-2-|
|-0-0-0-0-0-0-0-0-|-3-3-3-3-2-2-2-2-|-0-0-0-0-0-0-0-0-|-0-0-0-0-0-0-0-0-|
|
| PM------------------------------------------------------------------|
| E E E E E E E E   E E E E E E E E   E E E E E E E E   E E E E E E E E
|-----------------|-----------------|-----------------|-----------------|
|-----------------|-----------------|-----------------|-----------------|
|-----------------|-----------------|-----------------|-----------------|
|-----------------|-----------------|-----------------|-----------------|
|-----------------|-----------------|-2-2-2-2-2-2-2-2-|-2-2-2-2-2-2-2-2-|
|-0-0-0-0-0-0-0-0-|-3-3-3-3-2-2-2-2-|-0-0-0-0-0-0-0-0-|-0-0-0-0-0-0-0-0-|


                    G5      B5        A5
  PM------------------------------------------------------------------|
  E E E E E E E E   E E E E E E E E   E E E E E E E E   E E E E E E E E
|-----------------|-----------------|-----------------|-----------------|
|-----------------|-----------------|-----------------|-----------------|
|-----------------|-----------------|-----------------|-----------------|
|-----------------|---------4-4-4-4-|-2-2-2-2-2-2-2-2-|-2-2-2-2-2-2-2-2-|
|-2-2-2-2-2-2-2-2-|-5-5-5-5-2-2-2-2-|-0-0-0-0-0-0-0-0-|-0-0-0-0-0-0-0-0-|
|-0-0-0-0-0-0-0-0-|-3-3-3-3---------|-----------------|-----------------|
|
| PM------------------------------------------------------------------|
| E E E E E E E E   E E E E E E E E   E E E E E E E E   E E E E E E E E
|-----------------|-----------------|-----------------|-----------------|
|-----------------|-----------------|-----------------|-----------------|
|-----------------|-----------------|-----------------|-----------------|
|-----------------|---------4-4-4-4-|-2-2-2-2-2-2-2-2-|-2-2-2-2-2-2-2-2-|
|-2-2-2-2-2-2-2-2-|-5-5-5-5-2-2-2-2-|-0-0-0-0-0-0-0-0-|-0-0-0-0-0-0-0-0-|
|-0-0-0-0-0-0-0-0-|-3-3-3-3---------|-----------------|-----------------|


  D5                G5      F#5       D5                            A5
  PM--------------------------------------------------------------|
  E E E E E E E E   E E E E E E E E   E E E E E E E E   E E E E E E Q
|-----------------|-----------------|-----------------|----------------|
|-----------------|-----------------|-----------------|----------------|
|-----------------|-----------------|-----------------|----------------|
|-7-7-7-7-7-7-7-7-|-----------------|-7-7-7-7-7-7-7-7-|-7-7-7-7-7-7-2--|
|-5-5-5-5-5-5-5-5-|-5-5-5-5-4-4-4-4-|-5-5-5-5-5-5-5-5-|-5-5-5-5-5-5-0--|
|-----------------|-3-3-3-3-2-2-2-2-|-----------------|----------------|
|
| PM--------------------------------------------------------------|
| E E E E E E E E   E E E E E E E E   E E E E E E E E   E E E E E E Q
|-----------------|-----------------|-----------------|----------------|
|-----------------|-----------------|-----------------|----------------|
|-----------------|-----------------|-----------------|----------------|
|-7-7-7-7-7-7-7-7-|-----------------|-7-7-7-7-7-7-7-7-|-7-7-7-7-7-7-2--|
|-5-5-5-5-5-5-5-5-|-5-5-5-5-4-4-4-4-|-5-5-5-5-5-5-5-5-|-5-5-5-5-5-5-0--|
|-----------------|-3-3-3-3-2-2-2-2-|-----------------|----------------|


  B5          A5   B5          A5   B5      A5        G5      F#5
  PM--------|      PM--------|
  E E E E E E Q    E E E E E E Q    H       H         H       H
|----------------|----------------|-----------------|-----------------|
|----------------|----------------|-----------------|-----------------|
|----------------|----------------|-----------------|-----------------|
|-4-4-4-4-4-4-2--|-4-4-4-4-4-4-2--|-4-------2-------|-----------------|
|-2-2-2-2-2-2-0--|-2-2-2-2-2-2-0--|-2-------0-------|-5-------4-------|
|----------------|----------------|-----------------|-3-------2-------|
|
| PM--------|      PM--------|      PM------------------------------|
| E E E E E E Q    E E E E E E Q    E E E E E E E E   E E E E E E E E
|----------------|----------------|-----------------|-----------------|
|----------------|----------------|-----------------|-----------------|
|----------------|----------------|-----------------|-----------------|
|-4-4-4-4-4-4-2--|-4-4-4-4-4-4-2--|-4-4-4-4-2-2-2-2-|-----------------|
|-2-2-2-2-2-2-0--|-2-2-2-2-2-2-0--|-2-2-2-2-0-0-0-0-|-5-5-5-5-4-4-4-4-|
|----------------|----------------|-----------------|-3-3-3-3-2-2-2-2-|


     E5               D5
                                          2/4
  Q  Q  Q  Q    Q  Q  H      +W             H
|-------------|------------|------------||--------||
|-------------|------------|------------||--------||
|----9-----9--|----9--7----|-(7)--------||--------||
|----9-----9--|----9--7----|-(7)--------||-/x\----||
|----7-----7--|----7--5----|-(5)--------||--------||
|-------------|------------|------------||--------||
|
| Q  Q  Q  Q    Q  Q  H      +W             H
|-------------|------------|------------||--------||
|-------------|------------|------------||--------||
|----9-----9--|----9--7----|-(7)--------||--------||
|----9-----9--|----9--7----|-(7)--------||-/x\----||
|----7-----7--|----7--5----|-(5)--------||--------||
|-------------|------------|------------||--------||


    $
    N.C.                  (B)(C)(A)  N.C.
   4/4
    PM----------------|              PM------------------------------|
    E E E E E E E E   E E Q  Q  Q    E E E E E E E E   E E E E E E E E
||------------------|--------------|-----------------|------------------|
||o-----------------|--------------|-----------------|------------------|
||------------------|-----4--5--2--|-----------------|------------------|
||------------------|-----4--5--2--|-----------------|------------------|
||o-----------------|--------------|-------------0-0-|-3-3-0-0-2-2------|
||--0-0-2-2-3-3-2-2-|-0------------|-0-0-2-2-3-3-----|-------------3-3--|


                        (B)(C)(A)  N.C.
  PM----------------|              PM------------------------------|
  E E E E E E E E   E E Q  Q  Q    E E E E E E E E   E E E E E E E E
|-----------------|--------------|-----------------|-----------------||
|-----------------|--------------|-----------------|-----------------||
|-----------------|-----4--5--2--|-----------------|-----------------||
|-----------------|-----4--5--2--|-----------------|-----------------||
|-----------------|--------------|-------------0-0-|-3-3-0-0-2-2-----||
|-0-0-2-2-3-3-2-2-|-0------------|-0-0-2-2-3-3-----|-------------3-3-||


  C             (D5)       Bm            G
   H    Q  Q    W          H     Q  Q     W
|-------------|----------|-------------|-------|
|-------------|----------|-------------|-------|
|--9----------|-7--------|-7-----------|-------|
|-10----7--5--|-7--------|-9-----------|--9----|
|-------------|----------|------10--9--|-10----|
|-------------|----------|-------------|-------|


                          C
  PM----|         PM----|
  E E E E  H      E E E E  H
|---------------|---------------|
|---------------|---------------|
|---------------|----------9----|
|----------9----|-7-7-9-9-10----|
|-7-7-9-9-10----|---------------|
|---------------|---------------|


                1.               2.
          F#m            Bm               (Bm)
  PM----|        PM----|          PM----|
  E E E E H      E E E E H        E E E E H
|--------------|---------------||--------------||
|--------------|--------------o||--------------||
|--------------|---------7-----||---------7----||
|---------7----|-5-5-7-7-9-----||-5-5-7-7-9----||
|-5-5-7-7-9----|--------------o||--------------||
|--------------|---------------||--------------||


  D5                                    E5
  Gtr I
  W                 +W                  W                 +W
|-----------------|-------------------|-----------------|----------------------|
|-----------------|-------------------|-----------------|----------------------|
|-7---------------|-(7)---------------|-9---------------|-(9)------------------|
|-7---------------|-(7)---------------|-9---------------|-(9)------------------|
|-5---------------|-(5)---------------|-7---------------|-(7)------------------|
|-----------------|-------------------|-----------------|----------------------|
|
| Gtr II
| PM-------------------------------------------------------------------------|
| E E E E E E E E    E  E E E E E E E   E E E E E E E E    E   E  E  E E E E E
|-----------------|-------------------|-----------------|----------------------|
|-----------------|-------------------|-----------------|----------------------|
|-----------------|-------------------|-----------------|----------------------|
|-----------------|-----------7-7-7-7-|-----------------|--------------9-9-9-9-|
|-5-5-5-5-7-7-7-7-|--9--9-9-9---------|-7-7-7-7-9-9-9-9-|-10--10-10-10---------|
|-----------------|-------------------|-----------------|----------------------|


  D5                                    E5                D5
  W                 +W                  W                 W
|-----------------|-------------------|-----------------|-----------------|
|-----------------|-------------------|-----------------|-----------------|
|-7---------------|-(7)---------------|-9---------------|-7---------------|
|-7---------------|-(7)---------------|-9---------------|-7---------------|
|-5---------------|-(5)---------------|-7---------------|-5---------------|
|-----------------|-------------------|-----------------|-----------------|
|
| PM--------------------------------------------------------------------|
| E E E E E E E E    E  E E E E E E E   E E E E E E E E   E E E E E E E E
|-----------------|-------------------|-----------------|-----------------|
|-----------------|-------------------|-----------------|-----------------|
|-----------------|-------------------|-----------------|-----------------|
|-----------------|-------------------|---------5-5-5-5-|---------4-4-4-4-|
|-----------------|-----------7-7-7-7-|-7-7-7-7---------|-5-5-5-5---------|
|-5-5-5-5-7-7-7-7-|--8--8-8-8---------|-----------------|-----------------|


  B5                                    E5
  W                 +W                  W                 +W
|-----------------|-------------------|-----------------|----------------------|
|-----------------|-------------------|-----------------|----------------------|
|-----------------|-------------------|-9---------------|-(9)------------------|
|-9---------------|-(9)---------------|-9---------------|-(9)------------------|
|-9---------------|-(9)---------------|-7---------------|-(7)------------------|
|-7---------------|-(7)---------------|-----------------|----------------------|
|
| PM-------------------------------------------------------------------------|
| E E E E E E E E    E  E E E E E E E   E E E E E E E E    E   E  E  E E E E E
|-----------------|-------------------|-----------------|----------------------|
|-----------------|-------------------|-----------------|----------------------|
|-----------------|-------------------|-----------------|----------------------|
|-----------------|-------------------|-----------------|--------------9-9-9-9-|
|-----------------|--6--6-6-6-9-9-9-9-|-7-7-7-7-9-9-9-9-|-10--10-10-10---------|
|-7-7-7-7-9-9-9-9-|-------------------|-----------------|----------------------|


  A5                                    (B)               (A)
                                        PM------------------------------|
  W                 +W                  E E E E E E E E   E E E E E E E E
|-----------------|-------------------|-----------------|-----------------||
|-----------------|-------------------|-----------------|-----------------||
|-----------------|-------------------|-----------------|-----------------||
|-7---------------|-(7)---------------|-9-9-9-9-9-9-9-9-|-7-7-7-7-7-7-7-7-||
|-7---------------|-(7)---------------|-----------------|-----------------||
|-5---------------|-(5)---------------|-----------------|-----------------||
|
| PM--------------------------------------------------------------------|
| E E E E E E E E    E  E E E E E E E   E E E E E E E E   E E E E E E E E
|-----------------|-------------------|-----------------|-----------------||
|-----------------|-------------------|-----------------|-----------------||
|-----------------|-------------------|-----------------|-----------------||
|-----------------|-------------------|---------5-5-5-5-|---------4-4-4-4-||
|-----------------|-----------7-7-7-7-|-7-7-7-7---------|-5-5-5-5---------||
|-5-5-5-5-7-7-7-7-|--8--8-8-8---------|-----------------|-----------------||


  $$
  E5                G5      F#5       E5
  PM------------------------------------------------------------------|
  E E E E E E E E   E E E E E E E E   E E E E E E E E   E E E E E E E E
|-----------------|-----------------|-----------------|-----------------|
|-----------------|-----------------|-----------------|-----------------|
|-----------------|-----------------|-----------------|-----------------|
|-----------------|-----------------|-----------------|-----------------|
|-2-2-2-2-2-2-2-2-|-5-5-5-5-4-4-4-4-|-2-2-2-2-2-2-2-2-|-2-2-2-2-2-2-2-2-|
|-0-0-0-0-0-0-0-0-|-3-3-3-3-2-2-2-2-|-0-0-0-0-0-0-0-0-|-0-0-0-0-0-0-0-0-|


                    G5      B5        A5
  PM------------------------------------------------------------------|
  E E E E E E E E   E E E E E E E E   E E E E E E E E   E E E E E E E E
|-----------------|-----------------|-----------------|-----------------|
|-----------------|-----------------|-----------------|-----------------|
|-----------------|-----------------|-----------------|-----------------|
|-----------------|---------4-4-4-4-|-2-2-2-2-2-2-2-2-|-2-2-2-2-2-2-2-2-|
|-2-2-2-2-2-2-2-2-|-5-5-5-5-2-2-2-2-|-0-0-0-0-0-0-0-0-|-0-0-0-0-0-0-0-0-|
|-0-0-0-0-0-0-0-0-|-3-3-3-3---------|-----------------|-----------------|


  D5                G5      F#5       D5
  PM------------------------------------------------------------------|
  E E E E E E E E   E E E E E E E E   E E E E E E E E   E E E E E E E E
|-----------------|-----------------|-----------------|-----------------|
|-----------------|-----------------|-----------------|-----------------|
|-----------------|-----------------|-----------------|-----------------|
|-7-7-7-7-7-7-7-7-|-----------------|-7-7-7-7-7-7-7-7-|-7-7-7-7-7-7-7-7-|
|-5-5-5-5-5-5-5-5-|-5-5-5-5-4-4-4-4-|-5-5-5-5-5-5-5-5-|-5-5-5-5-5-5-5-5-|
|-----------------|-3-3-3-3-2-2-2-2-|-----------------|-----------------|


                            A5        B5
  PM------------------------------------------------|
  E E E E E E E E   E E E E E E E E   E E E E E E E E   Q  Q  Q  Q
|-----------------|-----------------|-----------------|-------------||
|-----------------|-----------------|-----------------|-------------||
|-----------------|-----------------|-----------------|-------------||
|-7-7-7-7-7-7-7-7-|-7-7-7-7-2-2-2-2-|-4-4-4-4-4-4-4-4-|-------------||
|-5-5-5-5-5-5-5-5-|-5-5-5-5-0-0-0-0-|-2-2-2-2-2-2-2-2-|-2--3--------||
|-----------------|-----------------|-----------------|-------3--2--||


  E5                G5      F#5       E5
  PM------------------------------------------------------------------|
  E E E E E E E E   E E E E E E E E   E E E E E E E E   E E E E E E E E
|-----------------|-----------------|-----------------|-----------------|
|-----------------|-----------------|-----------------|-----------------|
|-----------------|-----------------|-----------------|-----------------|
|-----------------|-----------------|-----------------|-----------------|
|-2-2-2-2-2-2-2-2-|-5-5-5-5-4-4-4-4-|-2-2-2-2-2-2-2-2-|-2-2-2-2-2-2-2-2-|
|-0-0-0-0-0-0-0-0-|-3-3-3-3-2-2-2-2-|-0-0-0-0-0-0-0-0-|-0-0-0-0-0-0-0-0-|


                    G5      B5        A5
  PM------------------------------------------------------------------|
  E E E E E E E E   E E E E E E E E   E E E E E E E E   E E E E E E E E
|-----------------|-----------------|-----------------|-----------------|
|-----------------|-----------------|-----------------|-----------------|
|-----------------|-----------------|-----------------|-----------------|
|-----------------|---------4-4-4-4-|-2-2-2-2-2-2-2-2-|-2-2-2-2-2-2-2-2-|
|-2-2-2-2-2-2-2-2-|-5-5-5-5-2-2-2-2-|-0-0-0-0-0-0-0-0-|-0-0-0-0-0-0-0-0-|
|-0-0-0-0-0-0-0-0-|-3-3-3-3---------|-----------------|-----------------|


  D5                G5      F#5       D5                            A5
  PM--------------------------------------------------------------|
  E E E E E E E E   E E E E E E E E   E E E E E E E E   E E E E E E Q
|-----------------|-----------------|-----------------|----------------|
|-----------------|-----------------|-----------------|----------------|
|-----------------|-----------------|-----------------|----------------|
|-7-7-7-7-7-7-7-7-|-----------------|-7-7-7-7-7-7-7-7-|-7-7-7-7-7-7-2--|
|-5-5-5-5-5-5-5-5-|-5-5-5-5-4-4-4-4-|-5-5-5-5-5-5-5-5-|-5-5-5-5-5-5-0--|
|-----------------|-3-3-3-3-2-2-2-2-|-----------------|----------------|


                                                To Coda
                                                To Coda
  B5          A5   B5          A5   B5   A5     G5   F#5
  PM--------|      PM--------|
  E E E E E E Q    E E E E E E Q    H    H      H    H
|----------------|----------------|-----------|-----------|
|----------------|----------------|-----------|-----------|
|----------------|----------------|-----------|-----------|
|-4-4-4-4-4-4-2--|-4-4-4-4-4-4-2--|-4----2----|-----------|
|-2-2-2-2-2-2-0--|-2-2-2-2-2-2-0--|-2----0----|-5----4----|
|----------------|----------------|-----------|-3----2----|


                                   D.S. al Coda
     B5               A5
                                          2/4
  Q  Q  Q  Q    Q  Q  H      +W            +H
|-------------|------------|------------||---------||
|-------------|------------|------------||---------||
|-------------|------------|------------||---------||
|----4-----4--|----4--2----|-(2)--------||-(2)-----||
|----2-----2--|----2--0----|-(0)--------||-(0)-----||
|-------------|------------|------------||---------||


  &
      E5
 4/4
  PM|    PM|      PM|    PM|      PM|    PM|      PM|    PM|
  E E Q  E E Q    E E Q  E E Q    E E Q  E E Q    E E Q  E E Q
|---------------|---------------|---------------|---------------||
|---------------|---------------|---------------|---------------||
|-----9------9--|-----9------9--|-----9------9--|-----9------9--||
|-----9------9--|-----9------9--|-----9------9--|-----9------9--||
|-----7------7--|-----7------7--|-----7------7--|-----7------7--||
|-0-0----0-0----|-0-0----0-0----|-0-0----0-0----|-0-0----0-0----||


   Guitar Solo I
    D5
    Gtr I
     E  E  E  E  E  E  E  E    E   E  E  E  E  E  E  E
||--17p14-19p14-17p14-19p14-|-17p=14-19p14-17p14-19p14-|
||o-------------------------|--------------------------|
||--------------------------|--------------------------|
||--------------------------|--------------------------|
||o-------------------------|--------------------------|
||--------------------------|--------------------------|
|
|   Gtr II
|    E  E  E  E  E  E  E  E    E   E  E  E  E  E  E  E
||--14p10-15p10-14p10-15p10-|-14p=10-15p10-14p10-15p10-|
||o-------------------------|--------------------------|
||--------------------------|--------------------------|
||--------------------------|--------------------------|
||o-------------------------|--------------------------|
||--------------------------|--------------------------|
|
|   Gtr III
|    W                        +W
||--------------------------|--------------------------|
||o-------------------------|--------------------------|
||--------------------------|--------------------------|
||---7----------------------|-(7)----------------------|
||o--5----------------------|-(5)----------------------|
||--------------------------|--------------------------|


  A5
                                          |------6-------|
   E  E  E  E  E  E  E  E    E   E  E  E  E  E  E  E  E  E
|-------------------------|-----------14-17p15p14----------|
|-17p14-19p14-17p14-19p14-|-14h=15h17-------------17p15p14-|
|-------------------------|--------------------------------|
|-------------------------|--------------------------------|
|-------------------------|--------------------------------|
|-------------------------|--------------------------------|
|
|                                         |------6-------|
|  E  E  E  E  E  E  E  E    E   E  E  E  E  E  E  E  E  E
|-------------------------|-----------10-14p12p10----------|
|-14p10-15p10-14p10-15p10-|-10h=12h14-------------14p12p10-|
|-------------------------|--------------------------------|
|-------------------------|--------------------------------|
|-------------------------|--------------------------------|
|-------------------------|--------------------------------|
|
|  W                        +W
|-------------------------|--------------------------------|
|-------------------------|--------------------------------|
|-------------------------|--------------------------------|
|-------------------------|--------------------------------|
|--7----------------------|-(7)----------------------------|
|--5----------------------|-(5)----------------------------|


  D5
   E  E  E  E  E  E  E  E    E   E  E  E  E  E  E  E
|-17p14-19p14-17p14-19p14-|-17p=14-19p14-17p14-19p14-|
|-------------------------|--------------------------|
|-------------------------|--------------------------|
|-------------------------|--------------------------|
|-------------------------|--------------------------|
|-------------------------|--------------------------|
|
|  E  E  E  E  E  E  E  E    E   E  E  E  E  E  E  E
|-14p10-15p10-14p10-15p10-|-14p=10-15p10-14p10-15p10-|
|-------------------------|--------------------------|
|-------------------------|--------------------------|
|-------------------------|--------------------------|
|-------------------------|--------------------------|
|-------------------------|--------------------------|
|
|  W                        +W
|-------------------------|--------------------------|
|-------------------------|--------------------------|
|-------------------------|--------------------------|
|--7----------------------|-(7)----------------------|
|--5----------------------|-(5)----------------------|
|-------------------------|--------------------------|


  A5
                                          |------6-------|
   E  E  E  E  E  E  E  E    E   E  E  E  E  E  E  E  E  E
|-------------------------|-----------14-17p15p14-----------|
|-17p14-19p14-17p14-19p14-|-14h=15h17-------------17p15p14--|
|-------------------------|---------------------------------|
|-------------------------|---------------------------------|
|-------------------------|---------------------------------|
|-------------------------|---------------------------------|
|
|                                         |------6-------|
|  E  E  E  E  E  E  E  E    E   E  E  E  E  E  E  E  E  E
|-------------------------|-----------10-14p12p10-----------|
|-14p10-15p10-14p10-15p10-|-10h=12h14-------------14p12p10--|
|-------------------------|---------------------------------|
|-------------------------|---------------------------------|
|-------------------------|---------------------------------|
|-------------------------|---------------------------------|
|
|  W                        +W
|-------------------------|---------------------------------|
|-------------------------|---------------------------------|
|-------------------------|---------------------------------|
|-------------------------|---------------------------------|
|--7----------------------|-(7)-----------------------------|
|--5----------------------|-(5)-----------------------------|


  G5
               |------6-------|
   E  E  E  E  E  E  E  E  E  E    E   E  E  E  E  E  E  E
|-14-14-14-14-14p12p10----------|-14p=10-15p10-14p10-12p10-|
|----------------------15p14p12-|--------------------------|
|-------------------------------|--------------------------|
|-------------------------------|--------------------------|
|-------------------------------|--------------------------|
|-------------------------------|--------------------------|
|
|              |------6-------|
|  E  E  E  E  E  E  E  E  E  E    E   E  E  E  E  E  E  E
|-10-10-10-10-10p=9p=7----------|-10p==7-12p=7-10p=7--9p=7-|
|----------------------12p10p=8-|--------------------------|
|-------------------------------|--------------------------|
|-------------------------------|--------------------------|
|-------------------------------|--------------------------|
|-------------------------------|--------------------------|
|
|  W                              +W
|-------------------------------|--------------------------|
|-------------------------------|--------------------------|
|-------------------------------|--------------------------|
|-------------------------------|--------------------------|
|--5----------------------------|-(5)----------------------|
|--3----------------------------|-(3)----------------------|


  A5
               |------6-------|
   E  E  E  E  E  E  E  E  E  E    E   E  E  E  E  E  E  E
|-15-15-15-15-15p14p12----------|-15p=12-17p12-15p12-14p12---|
|----------------------17p15p14-|----------------------------|
|-------------------------------|----------------------------|
|-------------------------------|----------------------------|
|-------------------------------|----------------------------|
|-------------------------------|----------------------------|
|
|              |------6-------|
|  E  E  E  E  E  E  E  E  E  E    E   E  E  E  E  E  E  E
|-10-10-10-10-12p10p=9----------|-12p==9-14p=9-12p=9-10p=9---|
|----------------------14p12p10-|----------------------------|
|-------------------------------|----------------------------|
|-------------------------------|----------------------------|
|-------------------------------|----------------------------|
|-------------------------------|----------------------------|
|
|  W                              +W
|-------------------------------|----------------------------|
|-------------------------------|----------------------------|
|-------------------------------|----------------------------|
|-------------------------------|----------------------------|
|--7----------------------------|-(7)------------------------|
|--5----------------------------|-(5)------------------------|


  G5
               |------6-------|
   E  E  E  E  E  E  E  E  E  E    E   E  E  E  E  E  E  E
|-14-14-14-14-14p12p10----------|-14p=10-15p10-14p10-12p10-|
|----------------------15p14p12-|--------------------------|
|-------------------------------|--------------------------|
|-------------------------------|--------------------------|
|-------------------------------|--------------------------|
|-------------------------------|--------------------------|
|
|              |------6-------|
|  E  E  E  E  E  E  E  E  E  E    E   E  E  E  E  E  E  E
|-10-10-10-10-10p=9p=7----------|-10p==7-12p=7-10p=7--9p=7-|
|----------------------12p10p=8-|--------------------------|
|-------------------------------|--------------------------|
|-------------------------------|--------------------------|
|-------------------------------|--------------------------|
|-------------------------------|--------------------------|
|
|  W                              +W
|-------------------------------|--------------------------|
|-------------------------------|--------------------------|
|-------------------------------|--------------------------|
|-------------------------------|--------------------------|
|--5----------------------------|-(5)----------------------|
|--3----------------------------|-(3)----------------------|


  (C#)        (D)            (E)           (A)
   E  E  E  E   E  E  E  E     E   E  E  E   E  E  E  E
|-12-12-12-12-/14-14-14-14-|--15-/15-15-15-/21-21-21-21---||
|--------------------------|-----------------------------o||
|--------------------------|------------------------------||
|--------------------------|------------------------------||
|--------------------------|-----------------------------o||
|--------------------------|------------------------------||
|
|  E  E  E  E   E  E  E  E     E   E  E  E   E  E  E  E
|--9--9--9--9-/10-10-10-10-|-/12--12-12-12-/17-17-17-17---||
|--------------------------|-----------------------------o||
|--------------------------|------------------------------||
|--------------------------|------------------------------||
|--------------------------|-----------------------------o||
|--------------------------|------------------------------||
|
|  PM------------------------------------------------|
|  E  E  E  E   E  E  E  E     E   E  E  E   E  E  E  E
|--------------------------|------------------------------||
|--------------------------|-----------------------------o||
|--------------------------|------------------------------||
|--------------------------|-----------------7--7--7--7---||
|--4--4--4--4---5--5--5--5-|---7---7--7--7---------------o||
|--------------------------|------------------------------||


   Guitar Solo II
    (E)
                   |---3---|
     H.            E  E    E    Q.      E  Q    Q
||--15------------14h15p==14-|-12------14-15---12---|
||o--------------------------|----------------------|
||---------------------------|----------------------|
||---------------------------|----------------------|
||o--------------------------|----------------------|
||---------------------------|----------------------|
|
|                  |---3---|
|    H.            E  E    E    Q.      E  Q    Q
||---7-------------5h=7p===5-|----------5--7--------|
||o--------------------------|--8---------------8---|
||---------------------------|----------------------|
||---------------------------|----------------------|
||o--------------------------|----------------------|
||---------------------------|----------------------|
|
|    PM----------------------------------------------
|    E  E E E E E  E    E       E  E E  E  E E  E E
||---------------------------|----------------------|
||o--------------------------|----------------------|
||---------------------------|----------------------|
||---------------------------|----------------------|
||o--7--7-7-7-7-7--7----7----|--7--7-7--7--7-7--7-7-|
||---------------------------|----------------------|


  (B)
   H.            Q      Q.      E  Q    Q
|-14------------12---|-11------12-14---11----|
|--------------------|-----------------------|
|--------------------|-----------------------|
|--------------------|-----------------------|
|--------------------|-----------------------|
|--------------------|-----------------------|
|
|  H.            Q      Q.      E  Q    Q
|--5-----------------|-------------5---------|
|----------------8---|--7-------8-------7----|
|--------------------|-----------------------|
|--------------------|-----------------------|
|--------------------|-----------------------|
|--------------------|-----------------------|
|
|-----------------------------------------|
|  E  E E E E E  E E    E  E E  E  E E  E E
|--------------------|-----------------------|
|--------------------|-----------------------|
|--------------------|-----------------------|
|--------------------|-----------------------|
|--------------------|-----------------------|
|--7--7-7-7-7-7--7-7-|--7--7-7--7--7-7--7-7--|


  (C)
   H.            Q     Q.      E  Q   Q
|-12------------10---|-8------10-12---8---|
|--------------------|--------------------|
|--------------------|--------------------|
|--------------------|--------------------|
|--------------------|--------------------|
|--------------------|--------------------|
|
|  H.            Q     Q.      E  Q   Q
|--------------------|--------------------|
|--8-------------7---|-5-------7--8---5---|
|--------------------|--------------------|
|--------------------|--------------------|
|--------------------|--------------------|
|--------------------|--------------------|
|
|  PM--------------------------------------
|  E  E E E E E  E E   E  E E  E  E E E E
|--------------------|--------------------|
|--------------------|--------------------|
|--------------------|--------------------|
|--------------------|--------------------|
|--------------------|--------------------|
|--8--8-8-8-8-8--8-8-|-8--8-8--8--8-8-8-8-|


  (B)                                  (D)
                             |---3---|
   H.            Q      Q    E  E    E  Q     Q
|-11------------12---|-14-----------14-19p===14-------||
|--------------------|---------16--------------------o||
|--------------------|------16------------------------||
|--------------------|--------------------------------||
|--------------------|-------------------------------o||
|--------------------|--------------------------------||
|
|                            |---3---|
|  H.            Q      Q    E  E    E  Q     Q
|--------------------|--5------------5-10p====5-------||
|--7-------------8---|----------7--------------------o||
|--------------------|-------8------------------------||
|--------------------|--------------------------------||
|--------------------|-------------------------------o||
|--------------------|--------------------------------||
|
|-----------------------------------------------|
|  E  E E E E E  E E    E E  E    E     E  E  E  E
|--------------------|--------------------------------||
|--------------------|-------------------------------o||
|--------------------|--------------------------------||
|--------------------|--------------------------------||
|--------------------|-------------------------------o||
|--7--7-7-7-7-7--7-7-|--7-7--7----7----10-10-10-10----||


 Guitar Solo III - M.Weikath
  (E)         (F#)          (G)         (B)
   E  E  E  E  E  E  E  E    E  E  E  E  E  E  E  E
|-------------------19p17-|-20p17-------------------|
|-20p17-19p17-20p17-------|-------20p17-19p17-20p17-|
|-------------------------|-------------------------|
|-------------------------|-------------------------|
|-------------------------|-------------------------|
|-------------------------|-------------------------|
|
|  PM------------------------------------------------
|  E  E  E  E  E  E  E  E    E  E  E  E  E  E  E  E
|-------------------------|-------------------------|
|-------------------------|-------------------------|
|-------------------------|-------------------------|
|-------------------------|--------------9--9--9--9-|
|--7--7--7--7--9--9--9--9-|-10-10-10-10-------------|
|-------------------------|-------------------------|


        (A)        (B)             (C)           (E)
          ~~~~                       ~~~~
   a     +W                   a     +W
|--------------------------|-------------------------------|
|-20b22-(20)---------------|-20b22-(20)--------------------|
|--------------------------|-------------------------------|
|--------------------------|-------------------------------|
|--------------------------|-------------------------------|
|--------------------------|-------------------------------|
|
|------------------------------------------------------|
|         E  E E E E E E E           E   E  E  E E E E E
|--------------------------|-------------------------------|
|--------------------------|-------------------------------|
|--------------------------|---------------------9-9-9-9---|
|---------7--7-7-7-9-9-9-9-|--------10--10-10-10-----------|
|--------------------------|-------------------------------|
|--------------------------|-------------------------------|


  (D)         (E)           (F#)        (A)
   E  E  E  E  E  E  E  E    E  E  E  E  E  E  E  E
|-20-19-17----------------|-------------------------|
|----------20-19-17-------|-------------------------|
|-------------------19-17-|-------------------------|
|-------------------------|-19-17-16----------------|
|-------------------------|----------19-17-15-------|
|-------------------------|-------------------19-15-|
|
|  PM------------------------------------------------
|  E  E  E  E  E  E  E  E    E  E  E  E  E  E  E  E
|-------------------------|-------------------------|
|-------------------------|-------------------------|
|-------------------------|-------------------------|
|-------------------------|--------------7--7--7--7-|
|--5--5--5--5--7--7--7--7-|--9--9--9--9-------------|
|-------------------------|-------------------------|


  (G)       (A)        (B)      (G)
   ~~~~~~~~~~~~~~~~~~~~~~~
   H.            Q      H        H
|--------------------|--------------------|
|--------------------|--------------------|
|--------------------|--------------------|
|-17------------19---|-17-------16\-------|
|--------------------|--------------------|
|--------------------|--------------------|
|
|---------------------------------------|
|  E  E E E E E  E E    E E E E  E  E E E
|--------------------|--------------------|
|--------------------|--------------------|
|--------------------|--------------------|
|--5--5-5-5-7-7--7-7-|--9-9-9-9--5--5-5-5-|
|--------------------|--------------------|
|--------------------|--------------------|


  (C)         (D)           (E)         (G)
   E  E  E  E  E  E  E  E    E  E  E  E  E  E  E  E
|-------------------------|-------------------------|
|-------------13p12-15p12-|-17p13-15p12-13p12-------|
|-12p11-14p11-------------|-------------------14p11-|
|-------------------------|-------------------------|
|-------------------------|-------------------------|
|-------------------------|-------------------------|
|
|  PM------------------------------------------------
|  E  E  E  E  E  E  E  E    E  E  E  E  E  E  E  E
|-------------------------|-------------------------|
|-------------------------|-------------------------|
|-------------------------|-------------------------|
|-------------------------|--------------5--5--5--5-|
|--3--3--3--3--5--5--5--5-|--7--7--7--7-------------|
|-------------------------|-------------------------|


  (A)         (B)           (C)          (E)
                                ~~~~~~~
   E  E  E  E  E  E  E  E    E  E  +H.
|-------------------------|----------------------|
|-------------------------|----------------------|
|-12p11-------------------|----------------------|
|-------14p12-------------|----------------------|
|-------------15p12-15p12-|----------------------|
|-------------------------|-15-12-(12)-----------|
|
|----------------------------------------------|
|  E  E  E  E  E  E  E  E    E  E   E  E E E E E
|-------------------------|----------------------|
|-------------------------|----------------------|
|-------------------------|----------------------|
|-------------------------|----------------------|
|-------------------------|--------------7-7-7-7-|
|--5--5--5--5--7--7--7--7-|--8--8---8--8---------|


  (Eb)    (C)       (B)     (A)
  E E E E E E E E   E E E E E E E E
|-8p5-----8p5-----|-8p5-----8p5-----|
|-----7-------7---|-----7-------7---|
|-------8-------8-|-------8-------8-|
|-----------------|-----------------|
|-----------------|-----------------|
|-----------------|-----------------|
|
| PM---------------------------------
| E E E E E E E E   E E E E E E E E
|-----------------|-----------------|
|-----------------|-----------------|
|-----------------|-----------------|
|-----------------|-----------------|
|-6-6-6-6---------|-----------------|
|---------8-8-8-8-|-7-7-7-7-5-5-5-5-|


  Eb                      (F#)
   E E  E  E  E E  E  E    E E  E  E  E E  E  E
|-11p8-------11p8-------|-11p8-------11p8-------||
|------10---------10----|------10---------10----||
|---------11---------11-|---------11---------11-||
|-----------------------|-----------------------||
|-----------------------|-----------------------||
|-----------------------|-----------------------||
|
|--------------------------------------------|
|  E E  E  E  E E  E  E    E E  E  E  E E  E  E
|-----------------------|-----------------------||
|-----------------------|-----------------------||
|-----------------------|-----------------------||
|-----------------------|-----------------------||
|--6-6--6--6--6-6--6--6-|--9-9--9--9--9-9--9--9-||
|-----------------------|-----------------------||


 Guitar Solo IV - R.Grapow
  (B)                   (G)
                         ~~~~~~~~~~~~~~~~~~
   H.            E  E    H        H
|-12------------14-12-|-11----------------|
|-13------------------|----------12-------|
|---------------------|-------------------|
|---------------------|-------------------|
|---------------------|-------------------|
|---------------------|-------------------|
|  H        H
|
|  PM--------------------------------------
|  E  E E E E E  E  E    E E E E  E E E E
|---------------------|-------------------|
|---------------------|-------------------|
|---------------------|-------------------|
|---------------------|--5-5-5-5--5-5-5-5-|
|---------------------|-------------------|
|--7--7-7-7-7-7--7--7-|-------------------|


  (C)                        (A)
 ~~~~~                        ~~
                 |---3---|
   H.            E  E    E    W
|-12------------11-12---14-|-15-----------------|
|--------------------------|--------------------|
|--------------------------|--------------------|
|--------------------------|--------------------|
|--------------------------|--------------------|
|--------------------------|--------------------|
|
|-------------------------------------------|
|  E  E E E E E  E    E       E E E E E E E E
|--------------------------|--------------------|
|--------------------------|--------------------|
|--------------------------|--------------------|
|--------------------------|--7-7-7-7-7-7-7-7---|
|--------------------------|--------------------|
|--8--8-8-8-8-8--8----8----|--------------------|


  (D)                   (B)
   ~~~                   ~~~~~~~~~~~
   H.            E  E    H        H
|-15------------17-15-|-14----------------|
|---------------------|----------15-------|
|---------------------|-------------------|
|---------------------|-------------------|
|---------------------|-------------------|
|---------------------|-------------------|
|
|  PM--------------------------------------
|  E  E E E E E  E  E    E E E E  E E E E
|---------------------|-------------------|
|---------------------|-------------------|
|---------------------|-------------------|
|---------------------|--9-9-9-9--9-9-9-9-|
|--5--5-5-5-5-5--5--5-|-------------------|
|---------------------|-------------------|


  (E)      (F#)                  (G)           (E)
                                   ~~~~
   H        +E   E  E  E    a     +W
|-15-------(15)-14-15-17-|-17b19-(17)------------------|
|------------------------|-----------------------------|
|------------------------|-----------------------------|
|------------------------|-----------------------------|
|------------------------|-----------------------------|
|------------------------|-----------------------------|
|
|----------------------------------------------------|
|  E E E E   E   E  E  E           E   E  E  E E E E E
|------------------------|-----------------------------|
|------------------------|-----------------------------|
|------------------------|-----------------------------|
|------------------------|-----------------------------|
|--7-7-7-7---9---9--9--9-|--------10--10-10-10-7-7-7-7-|
|------------------------|-----------------------------|


  (C)                                      (A)
         |---3---|  |---3---|  |---3---|
    Q    E  E    E  E  E    E  E  E    E    Q    Q    Q    Q
|-/20---19h20p==19-17h19p==17-15h17p==15-|-14---12---14---15---|
|----------------------------------------|---------------------|
|----------------------------------------|---------------------|
|----------------------------------------|---------------------|
|----------------------------------------|---------------------|
|----------------------------------------|---------------------|
|
|   PM----------------------------------------------------------
|   E E  E    E     E    E     E    E       E E  E E  E E  E E
|----------------------------------------|---------------------|
|----------------------------------------|---------------------|
|----------------------------------------|---------------------|
|----------------------------------------|---------------------|
|----------------------------------------|---------------------|
|---8-8--8----8-----8----8-----8----8----|--5-5--5-5--5-5--5-5-|


  (D)                                     (B)            A5
        |---3---|  |---3---|  |---3---|
   Q    E  E    E  E  E    E  E  E    E    Q    Q    Q    Q
|-17---15h17p==15-14h15p==14-12h14p==12-|-11-----------------|
|---------------------------------------|------12------------|
|---------------------------------------|-----------11-------|
|---------------------------------------|----------------14--|
|---------------------------------------|--------------------|
|---------------------------------------|--------------------|
|
|------------------------------------------------------|
|  E E  E    E     E    E     E    E       E E  E E  E E  Q
|---------------------------------------|--------------------|
|---------------------------------------|--------------------|
|---------------------------------------|--------------------|
|---------------------------------------|-----------------2--|
|--5-5--5----5-----5----5-----5----5----|--2-2--2-2--2-2--0--|
|---------------------------------------|--------------------|


  B5           A5    B5           A5
   ~~~~~~~~~~~~~~~~~~~~~~~~~~~~~~~~~~
   H.           Q     H.           Q
|------------------|------------------|
|------------------|------------------|
|-11---------------|------------------|
|--------------13--|------------------|
|------------------|-14-----------12--|
|------------------|------------------|
|
|      PM----|            PM----|
|  Q   E E E E  Q     Q   E E E E  Q
|------------------|------------------|
|------------------|------------------|
|------------------|------------------|
|--4------------2--|--4------------2--|
|--2---2-2-2-2--0--|--2---2-2-2-2--0--|
|------------------|------------------|


  B5                 A5        G5     F#5
        |-3-|
   Q.   S S S  a      +H        H      H
|-------------17b19==(17)----|-17r----17----||
|-----------x----------------|--------------||
|---------x------------------|--------------||
|-------x--------------------|--------------||
|-14-------------------------|--------------||
|----------------------------|--------------||
|
|  H                   H        H      H
|----------------------------|--------------||
|----------------------------|--------------||
|----------------------------|--------------||
|--4-------------------2-----|--------------||
|--2-------------------0-----|--5------4----||
|----------------------------|--3------2----||


  D5
   W                    Q   Q   Q   Q
|-17b19---------------|-----------------|
|---------------------|-----------------|
|--7------------------|-----7-------7---|
|--7------------------|-----7-------7---|
|--5------------------|-----5-------5---|
|---------------------|-----------------|
|  Q      Q   H
|
|  PM------------------------------------
|  E    E E E E E E E   E E E E E E E E
|---------------------|-----------------|
|---------------------|-----------------|
|---------------------|-----------------|
|---------------------|---------7-7-7-7-|
|--5----5-5-5-7-7-7-7-|-9-9-9-9---------|
|---------------------|-----------------|


  E5
  Q   Q   Q   E E    Q     Q    Q   E E
|-----------------|---------------------|
|-----------------|---------------------|
|-9-----------9-9-|--9-----9--------9-9-|
|-9-----------9-9-|--9-----9--------9-9-|
|-7-----------7-7-|--7-----7--------7-7-|
|-----------------|---------------------|
|
|-------------------------------------|
| E E E E E E E E    E  E  E  E E E E E
|-----------------|---------------------|
|-----------------|---------------------|
|-----------------|---------------------|
|-----------------|-------------9-9-9-9-|
|-7-7-7-7-9-9-9-9-|-10-10-10-10---------|
|-----------------|---------------------|


  A5                    E5
  Q   Q   H         Q   E E Q   E E
|-----------------|-----------------|
|-----------------|-----------------|
|-----------------|-----9-9-9---9-9-|
|-7---------------|-----9-9-9---9-9-|
|-7---------------|-----7-7-7---7-7-|
|-5---------------|-----------------|
|
| PM---------------------------------
| E E E E E E E E   E E E E E E E E
|-----------------|-----------------|
|-----------------|-----------------|
|-----------------|-----------------|
|-----------------|-----------------|
|-----------------|---------7-7-7-7-|
|-5-5-5-5-7-7-7-7-|-8-8-8-8---------|


                        D5
  Q   Q    H             Q     Q    H
|---------------------|---------------------|
|---------------------|---------------------|
|-9-------------------|--7------------------|
|-9-------------------|--7------------------|
|-7-------------------|--5------------------|
|---------------------|---------------------|
|
|-----------------------------------------|
| E E E E  E  E  E  E    E  E  E  E E E E E
|---------------------|---------------------|
|---------------------|---------------------|
|---------------------|---------------------|
|---------------------|---------------------|
|-7-7-7-7-10-10-10-10-|-------------9-9-9-9-|
|---------------------|-10-10-10-10---------|


                                                       D.S.S. al Dbl. Coda
  B5                                    B/Eb
  W                 +W                  W                 +W
|-----------------|-------------------|-----------------|-------------------||
|-----------------|-------------------|-----------------|-------------------||
|-4---------------|-(4)---------------|-8---------------|-(8)---------------||
|-4---------------|-(4)---------------|-9---------------|-(9)---------------||
|-2---------------|-(2)---------------|-6---------------|-(6)---------------||
|-----------------|-------------------|-----------------|-------------------||
|
| PM----------------------------------------------------------------------|
| E E E E E E E E    E  E E E E E E E   E E E E E E E E    E  E E E E E E E
|-----------------|-------------------|-----------------|-------------------||
|-----------------|-------------------|-----------------|-------------------||
|-----------------|-------------------|-----------------|-------------------||
|-----------------|-------------------|-----4-4-----4-4-|-------4-4-----4-4-||
|-----6-6-----6-6-|-------6-6-----6-6-|-6-6-----6-6-----|--6--6-----6-6-----||
|-7-7-----7-7-----|--7--7-----7-7-----|-----------------|-------------------||


  &&
     E5               D5        E5               C5
  Gtrs I, II
  Q  Q  Q  Q    Q  Q  H      Q  Q  Q  Q    Q  Q  H
|-------------|------------|-------------|------------|
|-------------|------------|-------------|------------|
|----9-----9--|----9--7----|----9-----9--|----9--5----|
|----9-----9--|----9--7----|----9-----9--|----9--5----|
|----7-----7--|----7--5----|----7-----7--|----7--3----|
|-------------|------------|-------------|------------|


     E5               D5        C5               D5
  Q  Q  Q  Q    Q  Q  H      Q  Q  Q  Q    Q  Q  H
|-------------|------------|-------------|------------|
|-------------|------------|-------------|------------|
|----9-----9--|----9--7----|----5-----5--|----5--7----|
|----9-----9--|----9--7----|----5-----5--|----5--7----|
|----7-----7--|----7--5----|----3-----3--|----3--5----|
|-------------|------------|-------------|------------|


                                    Moderately Q=140
  N.C.                                 E5                  G5   F#5
                                      6/8
                                       Gtr I
  PM------------------------------|
  E E E E E E E E   E E E E E E E E     H.                 Q.   Q.
|-----------------|-----------------||-------------------|------------|
|-----------------|-----------------||-------------------|------------|
|-----------------|-----------------||-------------------|------------|
|-2-4-5-4-2-------|-----------------||-------------------|------------|
|-------------2-3-|-3-5-3-----------||--2----------------|-5----4-----|
|-----------------|---------3-3-5-2-||--0----------------|-3----2-----|
|
|                                      Gtr II
|                                              ~~~~~~~~~~~~~~~~~~~~
| W                 W                   E     +Q    Q.     Q.   Q.
|-----------------|-----------------||-------------------|------------|
|-----------------|-----------------||-10b12-(10)--10----|-8----7-----|
|-----------------|-----------------||-------------------|------------|
|-----------------|-----------------||-------------------|------------|
|-----------------|-----------------||-------------------|------------|
|-----------------|-----------------||-------------------|------------|


  E5
 4/4
                       \1.5_________/
  W          +H        H           +W                     W
|----------|--------------------|----------------------|--------|
|----------|--------------------|----------------------|--------|
|----------|----------<5>-------|-(<5>)----------------|--------|
|----------|--------------------|----------------------|--------|
|-2--------|-(2)----------------|----------------------|--------|
|-0--------|-(0)----------------|----------------------|--------|
|
|             \1.5                           \4.5___/
| ~
| W           W                    +H.       E     +E    +W
|----------|--------------------|----------------------|--------|
|----------|--------------------|----------------------|--------|
|-9--------|-<3>----------------|-(<3>)------0-----(0)-|-(0)----|
|----------|--------------------|----------------------|--------|
|----------|--------------------|----------------------|--------|
|----------|--------------------|----------------------|--------|


  N.C.               (E)
  Gtrs I, II
                     PM-----------------|
  E E E E  E E E E   S S S S S S S S q  Q
|------------------|-----------------------*|
|------------------|-----------------------*|
|------------------|-----------------------*|
|----------------5-|-----------------------*|
|-------2-/7-6-7---|-----------------------*|
|-3-2-3------------|-0-0-0-0-0-0-0-0-0-----*|



Duration Legend
---------------
W - whole; H - half; Q - quarter; E - 8th; S - 16th; T - 32nd; X - 64th; a - acciaccatura
+ - note tied to previous; . - note dotted; .. - note double dotted
Uncapitalized letters represent notes that are staccato (1/2 duration)
Irregular groupings are notated above the duration line
Duration letters will always appear directly above the note/fret number it represents the
duration for.  Duration l
Добавлено: 26.02.2012
Другие материалы по этой песне:
  • Аккорды и текст

Страница создана 26.02.2012
http://primanota.ru/helloween/king-will-be-kings-chords.htm
Привет, Гость.
Предлагаем пройти революционный курс по гитаре.
Подарок от PrimaNota.Ru, забирай!