PrimaNota.ru - самый крупный в мире бесплатный архив песенных текстов, аккордов, табулатур и нот


Helloween - Im Alive - аккорды и текст, таба, бас-таба, видео

Регистрация Запомнить меня
Войти через:  Facebook Google Twitter Vk Yandex Mail.ru

Helloween - Im Alive - аккорды и текст, таба, бас-таба, видео

Печатать
Просмотров: 304
Im Alive
Helloween
Author/Artist: Helloween
Title: I'm Alive
Album: Keeper Of The Seven Keys Part 1
Transcribed by: Andrй Baida da Silva from Brazil
Email: andrecp@bestway.com.br

Hello (ween) friends!!! Are you ok??
I hope that i'm helping you with this tab.
If you found any mistake, please e-mail me.
See ya...

Andrй Baida da Silva


Intro

G--------|--7--|--9--|-------|--7--|--9--|-------------------------------------
D-----4--|--7--|--9--|-----4-|--7--|--9--|-------------------------------------
A-----4--|--5--|--7--|-----4-|--5--|--7--|-------------------------------------
E-----2--|-----|-----|--0--2-|-----|-----|-------------------------------------
                                                                              

Enter Vocals

G--------------------------|-----------------------|---------------------------
D--------------------------|-----------------------|---------------------------
A--------------------------|-----------------------|---------------------------
E----0h2-2-2-2-2-2-2-2-2-0-|-0h2-2-2-2-2-2-2-2-2-0-|---------------------------
                                                                              

Bridge

G------------------------------------------------------------------------------
D------------------------------------------------------------------------------
A----4-4-4-4-4-4-4-4------------------4-4-4-4-4-4-4-4--5-5-5-5-7-7-7-7---------
E---------------------2-2-2-2-2-2-2-2------------------------------------------
                                                                              

Chorus

G----------------------------------------------------------------|-------------
D----------------------------------------------------------------|-------------
A----------------------------------------------5-5-5-5-4-4-4-4---|-------------
E----2-0-2-2-2-2-2-2-2-2--2-0-2-2-2-2-2-2-2-2--------------------|-------------
                                                                              

G----------------------------------------------------------------|-------------
D----------------------------------------------------------------|-------------
A----------------------------------------------4-4-4-4--4-2------|-------------
E----2-0-2-2-2-2-2-2-2-2--2-0-2-2-2-2-2-2-2-2---------------5-4--|-------------
                                                                              

Repeat Vocals, Bridge and Chorus.

Solo 

G------------------------------------------------------------------------------
D------------------------------------------------------------------------------
A------------------------------------4-4-4-4-4-4-4-4-4-4-4-4-4-4--5-5-5-5-5-5--
E----2-2-2-2-2-2-2-2-2-2-2-2-2-2-2-2-------------------------------------------
                                                                              

G------------------------------------------------------------------------------
D-----------------------4-4-4-4-4-4-4-4----------------------------------------
A-5-5--7-7-7-7-7-7-7-7------------------7-7-7-7-7-7-7-7------------------------
E--------------------------------------------------------3-3-3-3-3-3-3-3-5-5---
                                                                              

G----------------------------------------------|-------------------------------
D----------------------------------------------|-------------------------------
A-------------2-2-2-2-2-2-2-2------------------|-------------------------------
E-5-5-5-5-5-5-----------------0-0-0-0-0-0-0-0--|-------------------------------
                                                                              

Do this part during the guitar duet

G------------------------------------------------------------------------|-----
D------------4-2--------4-2---5-4-2-------------4-2--------4-2-----------|-----
A----2-5-4-2-----5-4--------5-------4---2-5-4-2-----5-4--------5--1-4-2--|-----
E---------------------2----------------------------------2---------------|-----
                                                                              

Solo II

G------------------------------------------------------------------------------
D------------------------------------------------------------------------------
A----4-4-4-4-4-4-4-4-4-4-4-4-4-4-4-4-4-4---------------------------------4-4---
E----------------------------------------2-2-2-2-2-2-2-2-2-2-2-2-2-2-2-2-------
                                                                              

G------------------------------------------------------------|-----------------
D------------------------------------------------------------|-----------------
A-4-4-4-4-4-4--4-4-4-4-4-4-4---------------------------------|-----------------
E----------------------------2-2-2-2-2-2-2-2-2-2-2-0-2-3-3-4-|-----------------
                                                                              

Solo III

G------------------------------------------------------------------------------
D------------------------------------------------------------------------------
A----0-0-0-0-0-0-0-0-0-0-0-0-0-0-0-0----------------------------------0-0-0-0--
E-------------------------------------1-1-1-1-1-1-1-1-1-1-1-1-1-1-1-1----------
                                                                              

G------------------------------------------------------------------------------
D------------------------------------------------------------------------------
A-0-0-0-0-0-0-0-0-0-0-0-0------------------------------------------------------
E--------------------------1-1-1-1-1-1-1-1--3-3-3-3-3-3-3-3-3-3-3-3-3-3-3-3-0--
                                                                              

G--------------------------------|----
D--------------------------------|----
A--------------------------------|----
E-0-0-0-0-0-0-0-0-0-0-0-0-0-0-0--|----
                                                                              

Solo IV  ( 4 X )

G---------------------------------------------------------------------|--------
D--------------------2-2-2-2-2-2-2-2-4-4-4-4-4-4-4-4------------------|--------
A----0-0-0-0-0-0-0-0---------------------------------5-5-5-5-5-5-5-5--|--------
E---------------------------------------------------------------------|--------
                                                                              

Repeat Bridge and Chorus.

End.
Добавлено: 26.06.2012
Другие материалы по этой песне:

Страница создана 21.03.2012
http://primanota.ru/helloween/im-alive-chords.htm
Привет, Гость.
Предлагаем пройти революционный курс по гитаре.
Подарок от PrimaNota.Ru, забирай!