PrimaNota.ru - самый крупный в мире бесплатный архив песенных текстов, аккордов, табулатур и нот


Helloween - If I Could Fly - аккорды и текст, таба, драм-таба, видео

Регистрация Запомнить меня
Войти через:  Facebook Google Twitter Vk Yandex Mail.ru

Helloween - If I Could Fly - аккорды и текст, таба, драм-таба, видео

Печатать
Просмотров: 1748
If I Could Fly
Helloween
Artist: Helloween 
Song: If I Could Fly 
Album: The Dark Ride 
Date: 09/30/00 

Transcribed by Gabriela Cotosck (E-mail: gabybibi@woodstock.com >>
   ICQ:84242549)

This is my first tab, so, any comments or corrections, feel free 
to send me an email, ok? :)

Tuning: E

Intro (Piano, then this):

e|-----------------------------------------|
B|-----------------------------------------|
G|*------------------------------7-----7---|
D|--7-------5-------2------------7-----7---|  
A|*-7-7-7-7-5-5-5-5-2-2-2-2------5-----5---|
E|--5-5-5-5-3-3-3-3-0-0-0-0--0-0---0-0-----|
                             * *   * *       
e|-----------------------------------------|
B|-----------------------------------------|
G|-------------------------------9-----9-*-| 
D|--7-------5-------2------------9-----9---|  
A|--7-7-7-7-5-5-5-5-2-2-2-2------7-----7-*-|
E|--5-5-5-5-3-3-3-3-0-0-0-0--0-0---0-0-----|
                             * *   * *

(Actually, each chord is played 8 times, just listen to the song 
to get the rhythm :)

Verse:

e|-----------------------------------------|
B|-----------------------------------------|
G|-------------------------------7-----7---|
D|--7-------5-------2------------7-----7---|  
A|--7-7-7-7-5-5-5-5-2-2-2-2------5-----5---|
E|--5-5-5-5-3-3-3-3-0-0-0-0--0-0---0-0-----|
                             * *   * *       
e|-----------------------------------------|
B|-----------------------------------------|
G|-------------------------------9-----9---| 
D|--7-------5-------2------------9-----9---|  
A|--7-7-7-7-5-5-5-5-2-2-2-2------7-----7---|
E|--5-5-5-5-3-3-3-3-0-0-0-0--0-0---0-0-----|
                             * *   * *
e|-------------------------------------------------------------------------|
B|-------------------------------------------------------------------------|
G|-------------------------------7-----7-------------------------------7~--|
D|--7-------5-------2------------7-----7---7-------5-------2-2-2-2-2-2-7~--|
A|--7-7-7-7-5-5-5-5-2-2-2-2------5-----5---7-7-7-7-5-5-5-5-2-2-2-2-2-2-5~--|
E|--5-5-5-5-3-3-3-3-0-0-0-0--0-0---0-0-----5-5-5-5-3-3-3-3-0-0-0-0-0-0-----|
                             * *   * *                       * * * * *

Chorus 1:

e|-----------------------------------------|
B|-----------------------------------------|
G|*------------------------------7-----7---|
D|--7-------5-------2------------7-----7---|  
A|*-7-7-7-7-5-5-5-5-2-2-2-2------5-----5---|
E|--5-5-5-5-3-3-3-3-0-0-0-0--0-0---0-0-----|
                             * *   * *       
e|-----------------------------------------|
B|-----------------------------------------|
G|-------------------------------9-----9-*-| 
D|--7-------5-------2------------9-----9---|  
A|--7-7-7-7-5-5-5-5-2-2-2-2------7-----7-*-|
E|--5-5-5-5-3-3-3-3-0-0-0-0--0-0---0-0-----|
                             * *   * *

Chorus 2: 

e|-----------------------------------------|
B|-----------------------------------------|
G|-------------------------------7-----7---|
D|--7-------5-------2------------7-----7---|  
A|--7-7-7-7-5-5-5-5-2-2-2-2------5-----5---|
E|--5-5-5-5-3-3-3-3-0-0-0-0--0-0---0-0-----|
                             * *   * *       
e|-----------------------------------------|
B|-----------------------------------------|
G|-------------------------------9-----9---| 
D|--7-------5-------2------------9-----9---|  
A|--7-7-7-7-5-5-5-5-2-2-2-2------7-----7---|
E|--5-5-5-5-3-3-3-3-0-0-0-0--0-0---0-0-----|
                             * *   * *
e|-------------------------------------------------------------------------|
B|-------------------------------------------------------------------------|
G|-------------------------------7-----7-------------------------------7~--|
D|--7-------5-------2------------7-----7---7-------5-------2-2-2-2-2-2-7~--|
A|--7-7-7-7-5-5-5-5-2-2-2-2------5-----5---7-7-7-7-5-5-5-5-2-2-2-2-2-2-5~--|
E|--5-5-5-5-3-3-3-3-0-0-0-0--0-0---0-0-----5-5-5-5-3-3-3-3-0-0-0-0-0-0-----|
                             * *   * *                       * * * * *

Solo Chords:
                             
e|-------------------------------------------------|
B|-------------------------------------------------|
G|-------------------------------------------------|
D|--7-------7\5-3--------3/5-7-------7\5-3---------|
A|--7-7-7-7-7\5-3-3-3-3--3/5-7-7-7-7-7\5-3-3-3-3---|
E|--5-5-5-5-5\3-1-1-1-1--1/3-5-5-5-5-5\3-1-1-1-1---|

e|----------------------------------------------------------|
B|----------------------------------------------------------|
G|------------------------------------------------5-5--7-7--|
D|--7-------7\5-3--------3/5-7-------7\5-3--------5-5--7-7--|
A|--7-7-7-7-7\5-3-3-3-3--3/5-7-7-7-7-7\5-3-3-3-3--3-3--5-5--|
E|--5-5-5-5-5\3-1-1-1-1--1/3-5-5-5-5-5\3-1-1-1-1------------|

"Bridge":

e|---------------------------|---------------------------|---------|
B|---------------------------|---------------------------|---------|
G|---------------------------|---------------------------|---------|
D|--7~-5~---3~-----------5~--|--7~-5~---3~--7-9-10-9-5~--|--7~-5~--|
A|--7~-5~---3~-3-3-3-3-3-5~--|--7~-5~---3~--7-9-10-9-5~--|--7~-5~--|
E|--5~-3~-0-1~-1-1-1-1-1-3~--|--5~-3~-0-1~--5-7-8--7-3~--|--5~-3~--|
          *    * * * * *              *

Song Sequence:

Piano Intro
Intro
Verse
Chorus 1
Verse
Chorus 2
Solo
Bridge
Chorus 1 (Repeat 'til fade)
     
Добавлено: 25.11.2013
Другие материалы по этой песне:

Страница создана 03.03.2012
http://primanota.ru/helloween/if-i-could-fly-chords.htm
Привет, Гость.
Предлагаем пройти революционный курс по гитаре.
Подарок от PrimaNota.Ru, забирай!