PrimaNota.ru - самый крупный в мире бесплатный архив песенных текстов, аккордов, табулатур и нот


Helloween - I Live For Your Pain - текст песни, таба, видео

Регистрация Запомнить меня
Войти через:  Facebook Google Twitter Vk Yandex Mail.ru

Helloween - I Live For Your Pain - текст песни, таба, видео

Печатать
Просмотров: 179
Artist: Helloween
Album: The Dark Ride
Track: (9) I live for your pain

This is a kickass music from The Dark ride album, so I
decided to share my progress in transcribing it with 
everybody... I hope you all enjoy it
And remember...  HELLOWEEN IS THE LAW
Tabbed by: Pedro Menezes

In 7 seconds the guitar begins:
(the whole song is played with a heavy distorton)
								       
E||----------------------------------------||
B||----------------------------------------||
G||----------------------------------------||
D||--9--9/5--7-7/5--5---5-5-5-5-5-5--------||
A||--7--7/3--5-5/3--3---3-3-3-3-3-3--------||
E||----------------------------------------||
			pm.........


E||----------------------------------------||
B||----------------------------------------||
G||----------------------------------------||
D||--9--9/5--7-7/5--5---5-5-5-5-5-5--------||
A||--7--7/3--5-5/3--3---3-3-3-3-3-3--------||
E||----------------------------------------||
			pm.........

E||----------------------------------------||
B||----------------------------------------||
G||----------------------------------------||
D||--9--9/5--7-7/5--5---5-5-5-5-5-5--------||
A||--7--7/3--5-5/3--3---3-3-3-3-3-3--------||
E||----------------------------------------||
			pm.........

E||-------||
B||-------||
G||-------||
D||-9-9---||
A||-7-7---||
E||-------||

No guitar during the verses


In the bridge play the same thing (as the intro):

     Now,	you're caugth inside my cage  

E||----------------------------------------||
B||----------------------------------------||
G||----------------------------------------||
D||--9--9/5--7-7/5--5---5-5-5-5-5-5--------||
A||--7--7/3--5-5/3--3---3-3-3-3-3-3--------||
E||----------------------------------------||
			pm.........


Iin this part do some fret hand 
muting thing (does it have a name?) 
on the chords with a dot below)
listen to the music for the rythm

     I'm your redeemer	 (cause)     I
E||-------------------------------------||
B||-------------------------------------||
G||-------------------------------------||
D||--9-9-9-9-9-9-9-9-9-9-9-9-9-9-9-9-9--||
A||--7-7-7-7-7-7-7-7-7-7-7-7-7-7-7-7-7--||
E||-------------------------------------||
FHm    . .   . .   .   . .   . .   .


Chorus: (the fist chord here is the 
same in the part above)

    I		I live for your pain

E||---------------------------------------||
B||---------------------------------------||
G||---------------------------------------||
D||--9--5--7---------------------9--5--7--||
A||--7--3--5---------------------7--3--5--||
E||---------------------------------------||
	
obs: (Fhm is "fret hand muting", not F#m!)

And so on (grapow solo during the chorus, its hard 
to hear but sounds easy to play)

There are a couple of things left behind (I tabbed some other 
parts, but I won't post them yet cos I'm not quite sure 
about these ones), but this is a good beginning
Corrections, flames etc., send-me a mail

     
Добавлено: 29.09.2013
Другие материалы по этой песне:

Страница создана 06.06.2012
http://primanota.ru/helloween/i-live-for-your-pain-chords.htm
Привет, Гость.
Предлагаем пройти революционный курс по гитаре.
Подарок от PrimaNota.Ru, забирай!