PrimaNota.ru - самый крупный в мире бесплатный архив песенных текстов, аккордов, табулатур и нот


Hellomassacre - ในภาพสุดท้าย - таба, видео

Регистрация Запомнить меня
Войти через:  Facebook Google Twitter Vk Yandex Mail.ru

Hellomassacre - ในภาพสุดท้าย - таба, видео

Печатать
Просмотров: 57
tab by viewlnwza555+  

*=mute
h=hammer on


intro

 (0:25-0:45)
D|------------------------------------------------------------------|
A|------------------------------------------------------------------|
F|-10------12------14------12---------10------12------14------9-----|  
C|----x4------x4------x4------x4---------x4------x4------x4-----x4--|   x4
G|-8-------10------12------10---------8-------10------12------7-----|
C|------------------------------------------------------------------|


chorus

  (1:05-1:25)
D|------------------------------------------------------------------|
A|------------------------------------------11-10-------------------|
F|----9-9h10---9-9h10------9-9h10----9--9h10------------------------|
C|------------------------------------------------------------------|
G|------------------------------------------------------------------|
C|-00-------00--------00000--------00-------------------------------|
   **       **        *****        **


chorus2

  (1:26-1:45)
D|-----------------------------|
A|-----------------------------|
F|-7------9------10-----9------|
C|---x8-----x6------x4----x4---|   x4
G|-5------7------8------7------|
C|-----------------------------|


intro again (1:46-2:05)

verse

  (2:06-2:26)
D|------------------------------------------------|
A|------------------------------------------------|
F|------------------------------------------------|
C|------------------------------------------------|
G|------------------------------------------------|
C|-000-000-00000000----000-000-00000000-00-1-1----|
   *** *** ********    *** *** ******** ** * *

chorus again (2:27-2:46)


chorus2 again (2:47-3:04)


intro again x2 (3:05-3:36)
Добавлено: 01.06.2016
Другие материалы по этой песне:
  • Аккорды и текст

Страница создана 01.06.2016
http://primanota.ru/hellomassacre/-chords.htm
Привет, Гость.
Предлагаем пройти революционный курс по гитаре.
Подарок от PrimaNota.Ru, забирай!