PrimaNota.ru - самый крупный в мире бесплатный архив песенных текстов, аккордов, табулатур и нот


Hellogoodbye - Two Weeks In Hawwai - таба, видео

Регистрация Запомнить меня
Войти через:  Facebook Google Twitter Vk Yandex Mail.ru

Hellogoodbye - Two Weeks In Hawwai - таба, видео

Печатать
Просмотров: 66
Уроки эстрадного вокала в Санкт-Петербурге
standard tuning

beginnings bass but you can play if you want

---------------------|
---------------------|
---------------------|
---------------------|
-------2---4---------|
---0-----------------|

something like this as it starts to get louder
---------------------------------|
------9----------9-----9-----9---|
--------9------9-----9-----9-----|
---9------9--9-----9-----9-------|
---------------------------------|
---------------------------------|

(:53)(2:00)
-------|
-------|
---9---|
---9---|
---7---|
-------|
strum slow

(1:13)(2:19)
-----------------------------------------------------|
-----------------------------------------------------|
---------------4-4-4-4-4-4-6-6-6-6-6-6-2-2-2-2-2-2---|
---2-2-2-2-2-2-4-4-4-4-4-4-6-6-6-6-6-6-2-2-2-2-2-2---|
---2-2-2-2-2-2-2-2-2-2-2-2-4-4-4-4-4-4-0-0-0-0-0-0---|
---0-0-0-0-0-0---------------------------------------|
   * * * * * * * * * * * * * * * * * * * * * * * *
(1:19)(2:26)
-----------------------------------------------------|
-----------------------------------------------------|
---------------------------2---2-2-------------------|
---2-2-2-2-2-2-2-2-2-2-2-2-2---2-2-------------------|x2
---2-2-2-2-2-2-2-2-2-2-2-2-0---0-0--(---------0---2)-|
---0-0-0-0-0-0-0-0-0-0-0-0----------(-0---4--------)-|
                                      1st time only

-----------------------------------------------------------------------------|
-----------------------------------------------------------------------------|
-------------------2-2-2-2-4-4-4-4-2-2-2-2-4-4-4-4-6-6-6-6-6-6-6-6-2---4-----|
---2-2-2-2-6-6-6-6-2-2-2-2-4-4-4-4-2-2-2-2-4-4-4-4-6-6-6-6-6-6-6-6-2---4---2-|
---2-2-2-2-6-6-6-6-0-0-0-0-2-2-2-2-0-0-0-0-2-2-2-2-4-4-4-4-4-4-4-4-0---2---2-|
---0-0-0-0-4-4-4-4---------------------------------------------------------0-|

go back to (:53)

(3:05)
---------------------------------------|
---------------------------------------|
---------------4---4---6---6---2---2---|
---9~~--2---2--4---4---6---6---2---2---|
--------2---2--2---2---4---4---0---0---|
--------0---0--------------------------|

(3:32)
---------------------------------------------------------------------------|
---9---10-9-7---9-10-9-12--10-9-7--9-10-9-10-12-10-12-14-12-14-15-14-15b---|
---------------------------------------------------------------------------|
---------------------------------------------------------------------------|
---------------------------------------------------------------------------|
---------------------------------------------------------------------------|

play at (3:05) with out the 9~~

thats it. enjoy!
Добавлено: 20.08.2013
Другие материалы по этой песне:
  • Аккорды и текст

Страница создана 20.08.2013
http://primanota.ru/hellogoodbye/two-weeks-in-hawwai-chords.htm
Привет, Гость.
Предлагаем пройти революционный курс по гитаре.
Подарок от PrimaNota.Ru, забирай!