PrimaNota.ru - самый крупный в мире бесплатный архив песенных текстов, аккордов, табулатур и нот


Hellogoodbye - Shimmy Shimmy Quarter Turn - текст песни, таба, бас-таба, видео

Регистрация Запомнить меня
Войти через:  Facebook Google Twitter Vk Yandex Mail.ru

Hellogoodbye - Shimmy Shimmy Quarter Turn - текст песни, таба, бас-таба, видео

Печатать
Просмотров: 71
Hellogoodbye
Shimmy Shimmy Quarter Turn
Hellogoodbye EP

Standard Tuning
Distortion

KEY
pm = palm mute
h = hammer on
p = pull off
~ = let ring
/ = slide down
\ = slide up
v = vibrato

*Keyboard and Bass parts do not have to be played on Guitar.  I just put them there to 
in some spaces and to and make the tab easier to understand.

INTRO

(0:03)
                 (keyboard)  (keyboard) (keyboard) (keyboard
e|-----------------4h5p4p2-----4h5p4p2----4h5p4p2----4h5p4p2---------------|
B|-------------------------------------------------------------------------|
G|----66-------------------------------66----------------------------------|
D|22--66--66--7-7-----------22---------66---------66---------7-7-----------|
A|22--44--66--7-7-----------22---------44---------66---------7-7-----------|
E|00------44--5-5-----------00--------------------44---------5-5-----------|

(0:17)
e|-------------------------------------------------------------------------|
B|-------------------------------------------------------------------------|
G|----------66-6666------------------------(x2)----------------------------|
D|22-2222---66-6666-0-66-6666----------------------------------------------|
A|22-2222---44-4444-0-66-6666----------------------------------------------|
E|00-0000-0-----------44-4444-0-4h54h54-0~---------------------------------|
pm   ....      ....      ....


VERSE

(0:31)
e|---12------------------------------12------------------------------------|
B|-----12------------------------------------------------------------------|
G|-------------------------------------------------------------------------|
D|2-x-----(Bass)--------------------x----(Bass)------------7-7-7777--------|
A|2-x----4-44-444--(Bass)----(Bass)-x---4-44-444--(Bass)---7-7-7777--------|
E|0-x-------------4-44-444--5-5-5-5-x------------4-44-444--5-5-5555--------|

(0:46)
e|-------------------------------------------------------------------------|
B|-------------------------------------------------------------------------|
G|----------66-6666------------------------(x2)----------------------------|
D|22-2222---66-6666-0-66-6666----------------------------------------------|
A|22-2222---44-4444-0-66-6666----------------------------------------------|
E|00-0000-0-----------44-4444-0-4h54h54-0~---------------------------------|
pm   ....      ....      ....

(1:01)
e|----12~------------------------------------------------------------------|
B|-------------------------------------------------------------------------|
G|-------------------------------------------------------------------------|
D|2-x------(Bass)-----------------------------(Bass)-----------------------|
A|2-x----4-44-444---(Bass)---(Bass)----2/7~--4-44-444--(Bass)---(Bass)-----|
E|0-x-------------4-44-444--5-5-5-5-------------------4-44-444-5-5-5555----|

BRIDGE

(1:16)
e|-------------------------------------------------------------------------|
B|-------------------------------------------------------------------------|
G|666\4--------------666\4-------------------------------------------------|
D|666\4-2-22-444/6-7-666\4-2-22-444/6-7------------------------------------|
A|444\2-2-22-444/6-7-444\2-2-22-444/6-7------------------------------------|
E|------0-00-222/4-5-------0-00-222/4-5------------------------------------|

(1:23)
e|-------------------------------------------------12~---------------------|
B|-------------------------------------------------------------------------|
G|666\4----------------666\4-----------------------------------------------|
D|666\4-2-22-444/6-7-7-666\4-2-22----------------x-------------------------|
A|444\2-2-22-444/6-7-7-444\2-2-22----------------x-------------------------|
E|------0-00-222/4-5-5-------0-00-4h54h54h54h50~-x-------------------------|

(1:34)
e|-------------------------------------------------------------------------|
B|-------------------------------------------------------------------------|
G|--------------------66666-6---4-4-4--------------------------------------|
D|22222-2-2-77777-7-0-66666-6-0-4-4-4--(x2)--------------------------------|
A|22222-2-2-77777-7-0-44444-4-0-2-2-2--------------------------------------|
E|00000-0-0-55555-5-0------------------------------------------------------|

INTERLUDE

(1:49)
e|--------12---------------------------------------------------------------|
B|--------12---------------------------------------------------------------|
G|-------------------------------------------------------------------------|
D|2~-------------2~---4~---6~---7~---2--------4--------6--------7----------|
A|2~----------7\-2~---4~---6~---7~---2--------4--------6--------7----------|
E|0~----------7\-0~---2~---4~---5~---0-000000-2-222222-4-444444-5-5555555--|
pm                                     ......   ......   ......   .......
                                       (This palm muting is optional)

(2:22)
e|-------------------------------------------------------------------------|
B|-------------------------------------------------------------------------|
G|666\4--------------666\4----------------666\4----------------------------|
D|666\4-2-22-444/6-7-666\4-2-22-444/6-7-7-666\4-2-22-----------------------|
A|444\2-2-22-444/6-7-444\2-2-22-444/6-7-7-444\2-2-22-----------------------|
E|------0-00-222/4-5-------0-00-222/4-5-5-------0-00-4h54h54h54h50---------|

(2:33)
        (keyboard)
e|--12--4h5p4h5p4p0--------------------------------------------------------|
B|--12---------------------------------------------------------------------|
G|------------------66666-6---4-4-4---------------------66666-6---4-4-4----|
D|x-----------------66666-6-0-4-4-4-22222-2-2-77777-7-0-66666-6-0-4-4-4----|
A|x-----------------44444-4-0-2-2-2-22222-2-2-77777-7-0-44444-4-0-2-2-2----|
E|x---------------------------------00000-0-0-55555-5-0--------------------|

(2:48)
e|-------------------------------------------------------------------------|
B|-------------------------------------------------------------------------|
G|--------------------66666-6---4-4-4--------------------------------------|
D|22222-2-2-77777-7-0-66666-6-0-4-4-4--(x2)--------------------------------|
A|22222-2-2-77777-7-0-44444-4-0-2-2-2--------------------------------------|
E|00000-0-0-55555-5-0------------------------------------------------------|


OUTRO
(3:03)
e|-------------------------------------------------------------------------|
B|-------------------------------------------------------------------------|
G|-------------------------------------------------------------------------|
D|2~--2-v-v-v-v------------------------------------------------------------|
A|2~--2/7-7-7-7\-----------------------------------------------------------|
E|0~--0--------------------------------------------------------------------|

That's all.
Enjoy.
Добавлено: 27.10.2013
Другие материалы по этой песне:
  • Аккорды и текст

Страница создана 29.02.2012
http://primanota.ru/hellogoodbye/shimmy-shimmy-quarter-turn-chords.htm
Привет, Гость.
Предлагаем пройти революционный курс по гитаре.
Подарок от PrimaNota.Ru, забирай!