PrimaNota.ru - самый крупный в мире бесплатный архив песенных текстов, аккордов, табулатур и нот


Hellogoodbye - Not Ever Coming Home - аккорды и текст, видео

Регистрация Запомнить меня
Войти через:  Facebook Google Twitter Vk Yandex Mail.ru

Hellogoodbye - Not Ever Coming Home - аккорды и текст, видео

Печатать
Просмотров: 69
Not Ever Coming Home
Hellogoodbye
A            F#m                A
     It was the shortest day of autumn
               F#m              A
     Until the moment that I caught on
           F#m                Bm
     That I might still be forgotten


A            F#m               A
     I was so scared to try to kiss you
              F#m              A
     Now we'd scarcely find an issue
              F#m              Bm
     But you're barely finding it used

                  C#m
    Oh, it's not fair
             D                    C#m
    That your love should move so slow
             D                    C#m
    Like the faintest starlights glow
             D                   Bm
    Which moves swiftly, oh, I know
                                   A
    It's just got, oh, so far to go

F#m   A    F#m

 
A       F#m                A
    So I sent some glances to her
        F#m                        A
    But they missed or went right through her
         F#m                       Bm
    Though I couldn't have aimed truer

                  C#m          D                      C#m
    And it's not fair that your love should strike so weak
             D                 C#m
    And our affections feel so meek
         D                   Bm
    And our future seems so bleak
                                 A
    And oh, we've got so far to go

           F#m            A    
    We're not ever coming home
           F#m            A
    We're not ever coming home

       (to the end)


Finger picking for Verse 1.

      A           F#m
e|-------------------------|
B|-------5------------2----|
G|---6------------2--------|
D|-7---7--------4---4------|
A|-------------------------|
E|-------------------------|

       Bm (upstrum)
e|-----7-------------------|
B|-----7-------------------|
G|-----7-------------------|
D|-----9-------------------|
A|-----9-------------------|
E|-----7-------------------|



      A               F#m
e|----------------------------|
B|-------5---------------2----|
G|---6-----6---------2-------4|
D|-7---7-----7-----4---4------|
A|----------------------------|
E|----------------------------|

       Bm 
e|-----7-------------------|
B|-----7-------------------|
G|-----7-------------------|
D|-----9-------------------|
A|-----9-------------------|
E|-----7-------------------|
Добавлено: 19.10.2013
Другие материалы по этой песне:
  • Аккорды и текст

Страница создана 19.10.2013
http://primanota.ru/hellogoodbye/not-ever-coming-home-chords.htm
Привет, Гость.
Предлагаем пройти революционный курс по гитаре.
Подарок от PrimaNota.Ru, забирай!