PrimaNota.ru - самый крупный в мире бесплатный архив песенных текстов, аккордов, табулатур и нот


Hellogoodbye - Here In Your Arms Live - таба, видео

Регистрация Запомнить меня
Войти через:  Facebook Google Twitter Vk Yandex Mail.ru

Hellogoodbye - Here In Your Arms Live - таба, видео

Печатать
Просмотров: 58
This tab is the Live version on the Hellogoodbye dvd. You can get it off limewire (not 
promote illegal downloading)and i think that its a better version of here in your arms. 
cant really play this tab with the song from the album because the music is different some places.

And i know that this isnt really how they play it in the live version but its the way 
sounds the best.

Intro
E |-----------------------------------------------------------------|
B |--6-8-6-13--6-8-6-13-8-6-----------------------------------------|
G |-----------------------------------------------------------------|x2
D |-----------------------------------------------------------------|
A |-----------------------------------------------------------------|
E |-----------------------------------------------------------------|

0:12
e |-----------------------------------------------------------------|
B |--6--5-6-13-8-6--5--6--------------------------------------------|
G |-----------------------------------------------------------------|
D |-----------------------------------------------------------------|
A |-----------------------------------------------------------------|
E |-----------------------------------------------------------------|


0:19 & verse 1
e |-----------------------------------------------------------------|
B |--6-6-6-6-1-1-1-1-3-3-3-3----------------------------------------|
G |--------------------------3-3-3-3--------------------------------|
D |-----------------------------------------------------------------|x2
A |-----------------------------------------------------------------|
E |-----------------------------------------------------------------|

0:34
e |-----------------------------------------------------------------|
B |--6-8-6-13-8-6-5-5-6-6-------------------------------------------|
G |-----------------------------------------------------------------|
D |-----------------------------------------------------------------|x4
A |-----------------------------------------------------------------|
E |-----------------------------------------------------------------|

0:50 & verse 2
e |-----------------------------------------------------------------|
B |--6-8-6-13—[6-8-6-13-6-8-6-13-8-6]x3-6---------------------------|
G |-----------------------------------------------------------------|
D |-----------------------------------------------------------------|
A |-----------------------------------------------------------------|
E |-----------------------------------------------------------------|

1:04 chorus
e |-----------------------------------------------------------------|
B |-----------------------------------------------------------------|
G |--5-5-5-5--------------------------------------------------------|
D |--5-5-5-5--5-5-5-5--7-7-7-7--3-3-3-3-----------------------------|x2
A |--3-3-3-3--5-5-5-5--7-7-7-7--3-3-3-3-----------------------------|
E |-----------3-3-3-3--5-5-5-5--1-1-1-1-----------------------------|

1:20
e |-----------------------------------------------------------------|
B |-----8-8-------8-8---------8-8---8-------------------------------|
G |---5-7-7-7-5--5-7-7-7-5--5-7-7-7-7-------------------------------|
D |---5-5-5-7-5--5-5-5-7-5--5-5-5-7-5-------------------------------|x2
A |---3-----5-3--3-----5-3--3-----5---------------------------------|
E |-----------------------------------------------------------------|
1:35 & 3rd verse
Just play around with this one note
e |-----------------------------------------------------------------|
B |-6-6-6-6-6-6-----------------------------------------------------|
G |-----------------------------------------------------------------|
D |-----------------------------------------------------------------|
A |-----------------------------------------------------------------|
E |-----------------------------------------------------------------|

2:51 chorus
e |-----------------------------------------------------------------|
B |-----------------------------------------------------------------|
G |--5-5-5-5--------------------------------------------------------|
D |--5-5-5-5--5-5-5-5--7-7-7-7--3-3-3-3-----------------------------|x2
A |--3-3-3-3--5-5-5-5--7-7-7-7--3-3-3-3-----------------------------|
E |-----------3-3-3-3--5-5-5-5--1-1-1-1-----------------------------|

2:06
e |-----------------------------------------------------------------|
B |--6-8-6-8-6-5-6-6-5-6--------------------------------------------|
G |-----------------------------------------------------------------|
D |-----------------------------------------------------------------|x4
A |-----------------------------------------------------------------|
E |-----------------------------------------------------------------|

2:22 you can play this or clap because it's more fun and still sounds cool.
e |-----------------------------------------------------------------|
B |--6-6-6-6-1-1-1-1-3-3-3-3----------------------------------------|
G |--------------------------3-3-3-3--------------------------------|
D |-----------------------------------------------------------------|x2
A |-----------------------------------------------------------------|
E |-----------------------------------------------------------------|

2:38
e |-----------------------------------------------------------------|
B |--6-8-1-3-12--6-6-6-6-8-8-8-8-3-3-3-3-12-------------------------|
G |-----------------------------------------------------------------|
D |-----------------------------------------------------------------|x2
A |-----------------------------------------------------------------|
E |-----------------------------------------------------------------|

2:53
e |-----------------------------------------------------------------|
B |--6-8-6-8-6-5-6-6-5-6--------------------------------------------|
G |-----------------------------------------------------------------|
D |-----------------------------------------------------------------|x4
A |-----------------------------------------------------------------|
E |-----------------------------------------------------------------|

3:08
e |-----------------------------------------------------------------|
B |--6-1-3----------------------------------------------------------|
G |--------3--5-5-5-5-----------------------------------------------|
D |-----------5-5-5-5--5-5-5-5--7-7-7-7--3-3-3-3--------------------|
A |-----------3-3-3-3--5-5-5-5--7-7-7-7--3-3-3-3--------------------|
E |--------------------3-3-3-3--5-5-5-5--1-1-1-1--------------------|
3:16 This plays over and over for the rest of the song but you can choose to play the 
stuff [down below] too or alternate whatever sounds good to you
e |---------------------------------------------------------------|
B |---------------------------------------------------------------|
G |--5-5-5-5------------------------------------------------------|
D |--5-5-5-5--5-5-5-5--7-7-7-7--3-3-3-3---------------------------|
A |--3-3-3-3--5-5-5-5--7-7-7-7--3-3-3-3---------------------------|
E |-----------3-3-3-3--5-5-5-5--1-1-1-1---------------------------|

“Other stuff”
3:16
e |-----------------------------------------------------------------|
B |--6-8-1-3-12-----------------------------------------------------|
G |-----------------------------------------------------------------|
D |-----------------------------------------------------------------|
A |-----------------------------------------------------------------|
E |-----------------------------------------------------------------|

3:24 This repeats for the rest of the song in some form of this.
e |-----------------------------------------------------------------|
B |--6-8-6-8-6-5-6-6-5-6--6-8-6-8-6-5-6-5-12-10-9-------------------|
G |-----------------------------------------------------------------|
D |-----------------------------------------------------------------|
A |-----------------------------------------------------------------|
E |-----------------------------------------------------------------|

Email me if you have corrections myxfavoritexaccident@hotmail.com
Добавлено: 11.11.2013
Другие материалы по этой песне:
  • Аккорды и текст

Страница создана 30.10.2013
http://primanota.ru/hellogoodbye/here-in-your-arms-live-chords.htm
Привет, Гость.
Предлагаем пройти революционный курс по гитаре.
Подарок от PrimaNota.Ru, забирай!