PrimaNota.ru - самый крупный в мире бесплатный архив песенных текстов, аккордов, табулатур и нот


Hellogoodbye - Figures A And B - таба, видео

Регистрация Запомнить меня
Войти через:  Facebook Google Twitter Vk Yandex Mail.ru

Hellogoodbye - Figures A And B - таба, видео

Печатать
Просмотров: 63
there r 2 versoins of this song that i have heard. the one on napster is the one i 
out witch has 2 guitarist. well its sort of an easy song. have fun.

intro guitar 1

e|-------------------------------------------------------------------|
B|-13~----11~----13~----9~----13-11-13-14-13-11-9-11-9-7h8p7h8p7h8p7-|
G|-------------------------------------------------------------------|
D|-------------------------------------------------------------------|
A|-------------------------------------------------------------------|
E|-------------------------------------------------------------------|

(then second guitar comes in)intro guitar 2

e|--------------------------------------------------------|
B|--------------------------------------------------------|
G|5xxxxxx7xxxxxx9xxxxxx7xxxxxx5xxxxxx7xxxxxx9xxxxxx7xxxxxx
D|5xxxxxx7xxxxxx9xxxxxx7xxxxxx5xxxxxx7xxxxxx9xxxxxx7xxxxxx
A|3xxxxxx5xxxxxx7xxxxxx5xxxxxx3xxxxxx5xxxxxx7xxxxxx5xxxxxx
E|--------------------------------------------------------

intro continued guitar 1

e|---------------------------------------------------------------------------|
B|-9-9-9-9-9-9-11-11-11-11-11-11-13-13-13-13-13-13-9-9-9-9-9-9p8p7-7-7-7-7-7-|
G|---------------------------------------------------------------------------|
D|---------------------------------------------------------------------------|
A|---------------------------------------------------------------------------|
E|---------------------------------------------------------------------------|

intro continued guitar 1

e|------------------------|
B|9-9-9-9-9-9-11-13-11-9--|
G|------------------------|
D|------------------------|
A|------------------------|
E|------------------------|

verse guitar 1(idk if it is right but he only plays 3 notes twice in the whole verse)

e|-----
B|8-7-9
G|------|
D|------|
A|------|
E|------|

verse guitar 2

e|------------------------------------------------|
B|------------------------------------------------|
G|-3~5~7~|7~9~5~-7~5~3~---------------------------|
D|-3~5~7~|7~9~5~-7~5~3~ (play first section twice)
A|-1~3~5~|5~7~3~-5~3~1~-----------------------------|
E|--------------------------------------------------|

intro guitar 1

e|---------------------------------------------------------------------------|
B|-9-9-9-9-9-9-11-11-11-11-11-11-13-13-13-13-13-13-9-9-9-9-9-9p8p7-7-7-7-7-7-|
G|---------------------------------------------------------------------------|
D|---------------------------------------------------------------------------|
A|---------------------------------------------------------------------------|
E|---------------------------------------------------------------------------|

inro guitar 1 continued

e|-----------------------|
B|9-9-9-9-9-9-11-13-11-9-|
G|-----------------------|
D|-----------------------|
A|-----------------------|
E|-----------------------|

intro guitar 2

e|--------------------------------------------------------|
B|--------------------------------------------------------|
G|5xxxxxx7xxxxxx9xxxxxx7xxxxxx5xxxxxx7xxxxxx9xxxxxx7xxxxxx
D|5xxxxxx7xxxxxx9xxxxxx7xxxxxx5xxxxxx7xxxxxx9xxxxxx7xxxxxx
A|3xxxxxx5xxxxxx7xxxxxx5xxxxxx3xxxxxx5xxxxxx7xxxxxx5xxxxxx
E|--------------------------------------------------------

verse guitar 1(idk if it is right but he only plays 3 notes twice in the whole verse)

e|------|
B|8-7-9-|
G|------|
D|------|
A|------|
E|------|


verse guitar 2

e|-----------------------------------------------|
B|-----------------------------------------------|
G|-3~5~7~|7~9~5~-7~5~3~--------------------------|
D|-3~5~7~|7~9~5~-7~5~3~ (play first section twice)
A|-1~3~5~|5~7~3~-5~3~1~---------------------------|
E|------------------------------------------------|


chorus(both guitars)play 2 times

e|--------------------------------|
B|--------------------------------|
G|33333333333333335555555555555555
D|33333333333333335555555555555555
A|11111111111111113333333333333333
E|--------------------------------

post chours 1

e|---------------------------|
B|---------------------------|
G|5~------9~------5~------9~-|
D|5~------9~------5~------9~-|
A|3~------7~------3~------7~-|
E|---------------------------|

post chorus guitar 2

e|----------------------------|
B|----------------------------|
G|5~------9~------5~--9-9-9-9-|
D|5~------9~------5~--9-9-9-9-|
A|3~------7~------3~--7-7-7-7-|
E|----------------------------|
                      . . . .
bridge both guitars(palm muted)(starts low then gets louder)

e|--------------------------------|
B|--------------------------------|
G|3-3-3-3-3-3-3-3-5-5-5-5-5-5-5-5-|
D|3-3-3-3-3-3-3-3-5-5-5-5-5-5-5-5-|
A|1-1-1-1-1-1-1-1-3-3-3-3-3-3-3-3-|
E|--------------------------------|
  . . . . . . . . . . . . . . . .
outro both guitars(play 4 time)

e|--------------------------------|
B|--------------------------------|
G|33333333333333335555555555555555
D|33333333333333335555555555555555
A|11111111111111113333333333333333
E|--------------------------------

thats about it. have fun!
Добавлено: 19.10.2013
Другие материалы по этой песне:
  • Аккорды и текст

Страница создана 19.10.2013
http://primanota.ru/hellogoodbye/figures-a-and-b-chords.htm
Привет, Гость.
Предлагаем пройти революционный курс по гитаре.
Подарок от PrimaNota.Ru, забирай!