PrimaNota.ru - самый крупный в мире бесплатный архив песенных текстов, аккордов, табулатур и нот


Hellogoodbye - Everything Is Debatable - таба, видео

Регистрация Запомнить меня
Войти через:  Facebook Google Twitter Vk Yandex Mail.ru

Hellogoodbye - Everything Is Debatable - таба, видео

Печатать
Просмотров: 273
Уроки эстрадного вокала в Санкт-Петербурге
Авторы: Forrest Kline

-------------------------------------------------------------------------------
             Hellogoodbye - (Everything is) Debatable (Acoustic)
-------------------------------------------------------------------------------
Tabbed by: Ace

Tuning: Standard

Based on the acoustic version played by Forrest in The Wild Honey Pie BuzzSession 
(http://www.youtube.com/watch?v=Af1d41VdPTE).  There's 2 different shapes for Dm7
used in the song: most of the time it is x57565, but in the bridge it is xx0565.


Intro
   F         CM7/G   G          Dm7
e|-0-0-----------0-----2------------5----------------------------------------|
B|-1---1---1-----0-------3---3------6----------------------------------------|
G|-1-----1-----------------4--------5----------------------------------------|X 2
D|-2-----------2------------------7------------------------------------------|
A|-3---------3------/5----------5--------------------------------------------|
E|-----------3---------------------------------------------------------------|

Verse
F         CM7/G
 I was frozen there
 G             Dm7                  F
 Paralyzed and floating in the air
      CM7/G           G             Dm7                   F
 Or I thought; 'Cause no one really knows or could've saw
         CM7/G      G                    Dm7                       F
 So I wanted her to feel the breeze just blowing through the trees
   CM7/G    G                Dm7
 A ghost of something in our love, we don't yet know


Prechorus
F             CM7/G                        G 
 It's such an arbitrary line that we dance
              Dm7                             F
 We've waited centuries to throw up our hands
              CM7/G                        G
 It's such an arbitrary line that we dance
              Dm7
 We dance, we dance


Chorus
                    (Play Intro Riff)
 Oh everything is...


Verse
F        CM7/G
 So I waited there
 G                Dm7                     F  CM7/G
 Burdened by some things I shouldn't care   about
   G                   Dm7
 I brushed 'em off and dug my heart back out


Prechorus
F             CM7/G                        G 
 It's such an arbitrary line that we dance
              Dm7                             F
 We've waited centuries to throw up our hands
              CM7/G                        G
 It's such an arbitrary line that we dance
              Dm7
 We dance, we dance


Chorus
 Oh Everything is        debatable Oh, Everything is      debatable
e|---------------------8-----------------------------------------------------|
B|------------------10----------8-----------------------3-------6------------|
G|---------------10-----------9-----------------------4-------5--------------|
D|-------------------------10-----------------------5-------7----------------|
A|---------------------------------------------------------------------------|
E|---------------------------------------------------------------------------|

 Oh Everything is        debatable
e|---------------------8-----------------------------------------------------|
B|------------------10----------8-----------------------3---6----------------|
G|---------------10-----------9-----------------------4-----5----------------|
D|-------------------------10-----------------------5-------7----------------|
A|---------------------------------------------------------------------------|
E|---------------------------------------------------------------------------|


Bridge Riff (played sometimes, other times just strums the chords):
    CM7/G            Dm7
e|--0----------------5-------------------------------------------------------|
B|--0----------------6-------------------------------------------------------|
G|--0----------------5-------------------------------------------------------|
D|--2-----------3-0--0-------------------------------------------------------|
A|--3------------------------------------------------------------------------|
E|--3-------3-5--------------------------------------------------------------|

 CM7/G
 Feeling kinda strange
 I saw the other side
 Dm7
 Floating around in the room
                 CM7/G
 I realized it's always looked the same
 Despite some flashing lights
 Dm7
 Starting around over you


Prechorus
F             CM7/G                        G 
 It's such an arbitrary line that we dance
              Dm7                             F
 We've waited centuries to throw up our hands
              CM7/G                        G
 It's such an arbitrary line that we dance
              Dm7
 We dance, we dance


Chorus
 Oh Everything is        debatable     Everything is      debatable
e|---------------------8-----------------------------------------------------|
B|------------------10----------8-----------------------3-------6------------|
G|---------------10-----------9-----------------------4-------5--------------|
D|-------------------------10-----------------------5-------7----------------|
A|---------------------------------------------------------------------------|
E|---------------------------------------------------------------------------|

 Oh Everything is        debatable
e|---------------------8-----------------------------------------------------|
B|------------------10----------8-----------------------3---6----------------|
G|---------------10-----------9-----------------------4-----5----------------|
D|-------------------------10-----------------------5-------7----------------|
A|---------------------------------------------------------------------------|
E|---------------------------------------------------------------------------|
Добавлено: 19.10.2013
Другие материалы по этой песне:
  • Аккорды и текст

Страница создана 19.10.2013
http://primanota.ru/hellogoodbye/everything-is-debatable-chords.htm
Привет, Гость.
Предлагаем пройти революционный курс по гитаре.
Подарок от PrimaNota.Ru, забирай!