PrimaNota.ru - самый крупный в мире бесплатный архив песенных текстов, аккордов, табулатур и нот


Hellogoodbye - All Time Lows - текст песни, таба, бас-таба, видео

Регистрация Запомнить меня
Войти через:  Facebook Google Twitter Vk Yandex Mail.ru

Hellogoodbye - All Time Lows - текст песни, таба, бас-таба, видео

Печатать
Просмотров: 78
Intro:
e|--------------------------------------------------------------|
B|--------------------------------------------------------------|
G|-----------8/9--9-9-9-9---------------------------------------|
D|------2-2--x-x--x-x-x-x--2--4--7--2--4--7--2--4--7--2--4--7---|
A|------2-2--6/7--7-7-7-7--2--4--7--2--4--7--2--4--7--2--4--7---|
E|-12/0-0-0----------------0--2--5--0--2--5--0--2--5--0--2--5---|
                pm.......

Verse:
e|----------------------------------------|
B|----------------------------------------|
G|-9--9/14--9\----------------------------|
D|-x--x-----x---2--4--7--7---2--4--7--7---|
A|-7--7/12--7\--2--4--7--7---2--4--7--7---|
E|--------------0--2--5--5---0--2--5--5---|

Pre-Chorus
e|---------------------------------------|
B|---------------------------------------|
G|-13/14\13-11--13/14\13-11-9------------|
D|-x--x-----x---x--x--x--x--x-----x2-----|
A|-11/12\11-9---11/12\11-7--7------------|
E|---------------------------------------|

Chorus
e|-------------------------------------------------------------------------|
B|-------------------------------------------------------------------------|
G|-------------------------------------------------------------6-6-6-6-----|
D|-7-2-2-2-2-2-7-7-7-7-7-2-2-2-2-2-7-7-7-7-7-2-2-2-2-2-7-7-7-7-6-6-6-6-7-7-|
A|-7-2-2-2-2-2-7-7-7-7-7-2-2-2-2-2-7-7-7-7-7-2-2-2-2-2-7-7-7-7-4-4-4-4-7-7-|
E|-5-0-0-0-0-0-5-5-5-5-5-0-0-0-0-0-5-5-5-5-5-0-0-0-0-0-5-5-5-5---------5-5-|

Bridge
[guitar 1]
e|------------------------------------------------------------------------|
B|------------------------------------------------------------------------|
G|------------------6-6---------------------------------------------------|
D|-7-7-7-7-7----2-2-6-6-7-7-9-9-x-x----10-11-7-9-10-10-11-7-9-10----------|
A|-7-7-7-7-7----2-2-4-4-7-7-9-9-9-9----x--x--x-x-x--x--x--x-x-x-----------|
E|-5-5-5-5-5----0-0-----5-5-7-7-8-8----8--9--5-7-8--8--9--5-7-8-----------|

[guitar 2]
e|-------------------------------------------------------------------------|
B|-------------------------------------------------------------------------|
G|-------------------------------------------------------------------------|
D|-10-10-10-11-11-11-7-7-7-7-9-9-9-9-10-10-10-11-11-11-7-7-7-7-9-9-9-9-----|
A|-10-10-10-11-11-11-7-7-7-7-9-9-9-9-10-10-10-11-11-11-7-7-7-7-9-9-9-9-----|
E|-8--8--8--9--9--9--5-5-5-5-7-7-7-7-8--8--8--9--9--9--5-5-5-5-7-7-7-7-----|
pm....................................................................


Добавлено: 17.08.2013
Другие материалы по этой песне:
  • Аккорды и текст

Страница создана 23.06.2012
http://primanota.ru/hellogoodbye/all-time-lows-chords.htm
Привет, Гость.
Предлагаем пройти революционный курс по гитаре.
Подарок от PrimaNota.Ru, забирай!