PrimaNota.ru - самый крупный в мире бесплатный архив песенных текстов, аккордов, табулатур и нот


Hellhouse - Influx - таба, видео

Регистрация Запомнить меня
Войти через:  Facebook Google Twitter Vk Yandex Mail.ru

Hellhouse - Influx - таба, видео

Печатать
Просмотров: 60
                                This is not the whole song :)

                                   Influx by Hellhouse

Let Ring:L
Hammer on:H
Pull Off:P
Vibrato:~
                                                                           x2
E|-------7L-------------8L------------5L-------------7L--------------------|
B|---5--------------5-------------3--------------5-------------------------|
G|-------------------------------------------------------------------------|
D|-------------------------------------------------------------------------|
A|-------------------------------------------------------------------------|
E|-------------------------------------------------------------------------|

E|----------------------5L------------------------------------{----}---|
B|---5---8L---------3-------------3---7L---------5----8L------{-5L-}---|
G|------------------------------------------------------------{----}---|
D|------------------------------------------------------------{----}---|
A|------------------------------------------------------------{----}---|
E|------------------------------------------------------------{----}---|

E|-----------------------0L------------------0L----------------------------|
B|----5L--------------0----------------------------------------------------|
G|-------------------------------------------------------------------------|
D|-------------------------------------------------------------------------|
A|-------------------------------------------------------------------------|
E|-------------------------------------------------------------------------|

E|-------0-------0------0------0------0------0-------0-------0-------------|
B|---0-------3------5------0------8-------7------3-------5-------0---------|
G|-------------------------------------------------------------------------|
D|-------------------------------------------------------------------------|
A|-------------------------------------------------------------------------|
E|-------------------------------------------------------------------------|

E|-------0-------0-------0------0------0------0-------0-------0------------|
B|---0-------3-------5------0------8------10------7-------8-------5--------|
G|-------------------------------------------------------------------------|
D|-------------------------------------------------------------------------|
A|-------------------------------------------------------------------------|
E|-------------------------------------------------------------------------|

                                                                        x2
E|------0-------0------0------0------0-----0------0------------------------|
B|--0-------12-----13-----10-----12-----8-----10------7~~~~~---------------|
G|-------------------------------------------------------------------------|
D|-------------------------------------------------------------------------|
A|-------------------------------------------------------------------------|
E|-------------------------------------------------------------------------|


E|-------0-------0------0------0------0------0-------0-------0-------------|
B|---0-------3------5------0------8-------7------3-------5-------0---------|
G|-------------------------------------------------------------------------|
D|-------------------------------------------------------------------------|
A|-------------------------------------------------------------------------|
E|-------------------------------------------------------------------------|

E|-------0-------0-------0------0------0------0-------0-------0------------|
B|---0-------3-------5------0------8------10------7-------8-------5--------|
G|-------------------------------------------------------------------------|
D|-------------------------------------------------------------------------|
A|-------------------------------------------------------------------------|
E|-------------------------------------------------------------------------|


E|-------0-------0------0------0------0------0-------0-------0-------------|
B|---0-------3------5------0------8-------7------3-------5-------0---------|
G|-------------------------------------------------------------------------|
D|-------------------------------------------------------------------------|
A|-------------------------------------------------------------------------|
E|-------------------------------------------------------------------------|

                                                                       x4
E|------0-------0------0------0------0-----0------0------------------------|
B|--0-------12-----13-----10-----12-----8-----10------7--------------------|
G|-------------------------------------------------------------------------|
D|-------------------------------------------------------------------------|
A|-------------------------------------------------------------------------|
E|-------------------------------------------------------------------------|


E|-------0-------0------0------0------0------0-------0-------0-------------|
B|---0-------3------5------0------8-------7------3-------5-------0---------|
G|-------------------------------------------------------------------------|
D|-------------------------------------------------------------------------|
A|-------------------------------------------------------------------------|
E|-------------------------------------------------------------------------|

E|-------0-------0-------0------0------0------0-------0-------0------------|
B|---0-------3-------5------0------8------10------7-------8-------5--------|
G|-------------------------------------------------------------------------|
D|-------------------------------------------------------------------------|
A|-------------------------------------------------------------------------|
E|-------------------------------------------------------------------------|


E|-------0-------0------0------0------0------0-------0-------0-------------|
B|---0-------3------5------0------8-------7------3-------5-------0---------|
G|-------------------------------------------------------------------------|
D|-------------------------------------------------------------------------|
A|-------------------------------------------------------------------------|
E|-------------------------------------------------------------------------|


E|------0-----0-----0-----0------0------0-----0------0-----0-----0---0-------|
B|---0-----3-----5-----0-----10-----12-----8-----10-----7-----8------5-------|
G|---------------------------------------------------------------------------|
D|---------------------------------------------------------------------------|
A|---------------------------------------------------------------------------|
E|---------------------------------------------------------------------------|

E|-------------------------------------------------------------------------|
B|-------------------------------------------------------------------------|
G|-------------------------------------------------------------------------|
D|-------------------------------------------------------------------------|
A|-------------------------------------------------------------------------|
E|-------------------------------------------------------------------------|

E|-------------------------------------------------------------------------|
B|-------------------------------------------------------------------------|
G|-------------------------------------------------------------------------|
D|----2-------12------12----14----------2---------------5------------------|
A|----2-------12------14----14----------2-----5----7-----------------------|
E|----0-------10------14----12----------0----------------------------------|

E|------------------------------------7---5-----3H5P3H5P3H5P3H5P3----------|
B|-------------------------------------------------------------------------|
G|-------------------------------------------------------------------------|
D|----2-------12------12----12---------------------------------------------|
A|----2-------12------14----14---------------------------------------------|
E|----0-------10------14----14---------------------------------------------|
Добавлено: 05.06.2013
Другие материалы по этой песне:
  • Аккорды и текст

Страница создана 05.06.2013
http://primanota.ru/hellhouse/influx-chords.htm
Привет, Гость.
Предлагаем пройти революционный курс по гитаре.
Подарок от PrimaNota.Ru, забирай!