PrimaNota.ru - самый крупный в мире бесплатный архив песенных текстов, аккордов, табулатур и нот


Hellhammer - Triumph Of Death - текст песни, таба, видео

Регистрация Запомнить меня
Войти через:  Facebook Google Twitter Vk Yandex Mail.ru

Hellhammer - Triumph Of Death - текст песни, таба, видео

Печатать
Просмотров: 208
Уроки эстрадного вокала в Санкт-Петербурге
Авторы музыки: Thomas Gabriel Warrior, Bruce Day
Авторы текста: Thomas Gabriel Warrior
Artist: Hellhammer 
Song: Triumph Of Death
Album: Demon Entrails

Tabbed by:chris

Tuning:E standard


e|-----------------------------|
B|-----------------------------|
G|-----------------------------|
D|----------------------------2|
A|----------------------------2|
E|0~~4~3~6~5~8~7~6~5~4~3~6~5~~0|
     * * * * * * * * * * * *
*Pinch harmonics

e|-----------------------------|
B|-----------------------------|
G|-----------------------------|
D|-----------------------------|
A|-----------------------------|
E|0h3p0h3p0h3p0h3p0h3p0h3~~~~~~|


e|----------------------|
B|----------------------|
G|----------------------|
D|-------------9--8--7--|
A|2--6-5-6--9--7--6--5--|
E|0--4-3-4--7-----------|


e|----------------|
B|----------------|
G|----------------|
D|----------------|
A|2----7----6----5|
E|0----5----4----3|


e|-----------------------|
B|-----------------------|
G|-----------------------|
D|-----------------------|
A|---6----8----9----8-9-8|
E|00-4-00-6-00-7-00-6-7-6|

e|-------------------------|
B|-------------------------|
G|-------------------------|
D|-------------------------|
A|---6----8----9----10-9-10|
E|00-4-00-6-00-7-00-8--7-8-|


e|---------------------|
B|---------------------|
G|---------------------|
D|---------------------|
A|---6----6----6----6-6|
E|00-4-00-4-00-4-00-4-4|

e|---------------|
B|---------------|
G|---------------|
D|---------------|
A|88888888888-8-8|
E|66666666666-6-6|



e|-----------------|----------------|
B|-----------------|----------------|
G|-----------------|----------------|
D|-----------------|----------------|
A|888-888-888-10-11|666-666-666-5-4-|
E|666-666-666-8--9-|444-444-444-3-2-|

e|-------------------|
B|-------------------|
G|-------------------|
D|-------------------|
A|-------------------|
E|0-00-0-00-0-00-4~4~|

e|----------------------------------------------------------|
B|----------------------------------------------------------|
G|----------------------------------------------------------|
D|----------------------------------------------------------|
A|----------------------------------------------------------|
E|0~~4~~0h4p0h4p0h4p0h4p0h3~~6~0h6p0h6p0h6p0h6p0h6~~66~5~7~8|
                                                    ** * * *
Добавлено: 26.10.2015
Другие материалы по этой песне:
  • Аккорды и текст

Страница создана 19.07.2012
http://primanota.ru/hellhammer/triumph-of-death-chords.htm
Привет, Гость.
Предлагаем пройти революционный курс по гитаре.
Подарок от PrimaNota.Ru, забирай!