PrimaNota.ru - самый крупный в мире бесплатный архив песенных текстов, аккордов, табулатур и нот


Hellhammer - Satanic Rites - текст песни, таба, видео

Регистрация Запомнить меня
Войти через:  Facebook Google Twitter Vk Yandex Mail.ru

Hellhammer - Satanic Rites - текст песни, таба, видео

Печатать
Просмотров: 81
Авторы музыки: Thomas Gabriel Warrior
Авторы текста: Thomas Gabriel Warrior
Artist: Hellhammer 
Song: Satanic Rites
Album: Demon Entrails

Tabbed by:chris

Tuning:E standard

e|--------|----------------|----------------|----------------|
B|--------|----------------|----------------|----------------|
G|--------|----------------|----------------|----------------|
D|8-----7-|66666666666666--|55555555555555--|44444444444444--|
A|6-8-7-5-|44444444444444-5|33333333333333-4|22222222222222-3|
E|--6-5---|---------------3|---------------2|---------------1|
                                              Satanic Rites!
e|----------|-----------|
B|----------|-----------|
G|----------|-----------|
D|----8-----|----8------|
A|888-6-7-6-|888-6-7-6-5|
E|666---5-4-|666---5-4-3|
    
e|---------------|---------------|----------------|
B|---------------|---------------|----------------|
G|---------------|---------------|----------------|
D|777-666-555----|777-666--------|777-66-7--------|
A|555-444-333-555|555-444-777-666|555-44-5-777-6-7|
E|------------333|--------555-444|---------555-4-5|

e|-----------------------|-------|
B|-----------------------|-------|
G|-----------------------|-------|
D|55555-44444-33333------|3-5-6--|
A|33333-22222-11111-3-5-6|1-3-4--|
E|------------------1-3-4|-------|

e|--------------------|------------|
B|--------------------|------------|
G|--------------------|------------|
D|1010101010101010-7-8|------------|
A|8-8-8-8-8-8-8-8--5-6|88888888-5-6|
E|--------------------|66666666-3-4|



Добавлено: 26.10.2015
Вам также может быть интересно:
Другие материалы по этой песне:
  • Аккорды и текст

Страница создана 16.10.2013
http://primanota.ru/hellhammer/satanic-rites-chords.htm
Привет, Гость.
Предлагаем пройти революционный курс по гитаре.
Подарок от PrimaNota.Ru, забирай!