PrimaNota.ru - самый крупный в мире бесплатный архив песенных текстов, аккордов, табулатур и нот


Hellhammer - Revelations Of Doom - текст песни, таба, видео

Регистрация Запомнить меня
Войти через:  Facebook Google Twitter Vk Yandex Mail.ru

Hellhammer - Revelations Of Doom - текст песни, таба, видео

Печатать
Просмотров: 54
Авторы музыки: Thomas Gabriel Warrior
Авторы текста: Martin Eric Ain
Artist: Hellhammer 
Song: Revelations Of Doom
Album: Demon Entrails

Tabbed by:chris

Tuning:E standard


e|-----------------------------|
B|-----------------------------|
G|-----------------------------|
D|-----------9------------9----|
A|-----------7------------7----|
E|6666666666---6666666666------|


e|-------------------|----------|
B|-------------------|----------|
G|-------------------|----------|
D|6--------6---------|----------|
A|4-6-5-6--4--6-5-6--|-6-5-6-5--|
E|--4-3-4-----4-3-4--|-4-3-4-3--|
      

e|---------------------------------|
B|---------------------------------|
G|---------------------------------|
D|------------5-6------------5-6---|
A|------------3-4------------3-4---|
E|11111111111-----2222222222-------|


e|------------------------------|
B|------------------------------|
G|------------------------------|
D|------------------------------|
A|3-6-5-4--6-6--3-6-5-4--6-6----|
E|1-4-3-2--4-4--1-4-3-2--4-4----|


Добавлено: 26.10.2015
Другие материалы по этой песне:
  • Аккорды и текст

Страница создана 13.10.2013
http://primanota.ru/hellhammer/revelations-of-doom-chords.htm
Привет, Гость.
Предлагаем пройти революционный курс по гитаре.
Подарок от PrimaNota.Ru, забирай!