PrimaNota.ru - самый крупный в мире бесплатный архив песенных текстов, аккордов, табулатур и нот


Hellhammer - Reaper - текст песни, таба, видео

Регистрация Запомнить меня
Войти через:  Facebook Google Twitter Vk Yandex Mail.ru

Hellhammer - Reaper - текст песни, таба, видео

Печатать
Просмотров: 59
Авторы музыки: Thomas Gabriel Warrior, Bruce Day
Авторы текста: Thomas Gabriel Warrior
Artist: Hellhammer
Song: Reaper
Album: Demon Entrails

Tabbed by:chris

Tuning:E standard


e|---------------------------------|
B|---------------------------------|
G|---------------------------------|
D|---------------------------------|
A|---------------------------------|
E|0h3p0h3p0h3p0h3p0h3p0h3p0h3p0h3~~|



e|---------------------------------|
B|---------------------------------|
G|---------------------------------|
D|---------------------------------|
A|---5----7-6----5----7-6----------|
E|00-3-00-5-4-00-3-00-----7-6------|


e|---------------------------------|
B|---------------------------------|
G|---------------------------------|
D|---------------------------------|
A|2--2--888888-8-7-888888-8-7------|
E|0--0--666666-6-5-666666-6-5------|
Добавлено: 26.10.2015
Другие материалы по этой песне:

Страница создана 06.08.2013
http://primanota.ru/hellhammer/reaper-chords.htm
Привет, Гость.
Предлагаем пройти революционный курс по гитаре.
Подарок от PrimaNota.Ru, забирай!