PrimaNota.ru - самый крупный в мире бесплатный архив песенных текстов, аккордов, табулатур и нот


Hellhammer - Maniac - текст песни, таба, видео

Регистрация Запомнить меня
Войти через:  Facebook Google Twitter Vk Yandex Mail.ru

Hellhammer - Maniac - текст песни, таба, видео

Печатать
Просмотров: 42
Авторы музыки: Thomas Gabriel Warrior, Bruce Day
Авторы текста: Steve Warrior
Artist: Hellhammer
Song: Maniac
Album: Demon Entrails
Year: 2008
Tabbed by: antichris666

Tuning: E standard

 Intro
e|--------------------------------|
B|--------------------------------|
G|--------------------------------|
D|--------------------------------|
A|-4-4-4-4-4-4--2--4-4-4-4-4-4--7-|
E|-2-2-2-2-2-2--0--2-2-2-2-2-2--5-|

 Verse
e|----------------------------------------------------------------------------------------|
B|----------------------------------------------------------------------------------------|
G|----------------------------------------------------------------------------------------|
D|--------------------------------------------------------2-2-2-2-2-----------------------|
A|-4-4-4-4-4--2-2-2-2-2--4-4-4-4-4--2-2-2-2-2--4-4-4-4-4-------------4-4-4-4-4--2-2-2-2-2-|
E|-2-2-2-2-2--0-0-0-0-0--2-2-2-2-2--0-0-0-0-0--2-2-2-2-2-------------2-2-2-2-2--0-0-0-0-0-|

e|-----------------------------------------------------------------|
B|-----------------------------------------------------------------|
G|-----------------------------------------------------------------|
D|-----------------------------------------------------------------|
A|-----------------------------------------------------------------|
E|-0-0-6-0-0-5-0-0-4-0-0--3p0h3p0h3p0h3--0-0-6-0-0-5-0-0-4-0-0--2b-|

 Verse 
e|----------------------------------------------------------------------------------------|
B|----------------------------------------------------------------------------------------|
G|----------------------------------------------------------------------------------------|
D|----------------------------------------------------------------------------------------|
A|-4-4-4-4-4--2-2-2-2-2--4-4-4-4-4--2-2-2-2-2--4-4-4-4-4--2-2-2-2-2--4-4-4-4-4--2-2-2-2-2-|
E|-2-2-2-2-2--0-0-0-0-0--2-2-2-2-2--0-0-0-0-0--2-2-2-2-2--0-0-0-0-0--2-2-2-2-2--0-0-0-0-0-|

 Chorus
e|-----------------------------------------------------------------|
B|-----------------------------------------------------------------|
G|-----------------------------------------------------------------|
D|-----------------------------------------------------------------|
A|-2-2-2-2-2-2-2-2-2-2-2-2-2-2-2-2-6-6-6-6-6-6-6-6-6-6-6-6-6-6-6-6-|
E|-0-0-0-0-0-0-0-0-0-0-0-0-0-0-0-0-4-4-4-4-4-4-4-4-4-4-4-4-4-4-4-4-|

e|--------------------------------------------------------------------|
B|--------------------------------------------------------------------|
G|--------------------------------------------------------------------|
D|--------------------------------------------------------------------|
A|-5-5-5-5-5-5-5-5-5-5-5-5-5-5-5-5--5-6-7--5-6-7--5-6-7--5-6-7--5-6-7-|
E|-3-3-3-3-3-3-3-3-3-3-3-3-3-3-3-3------------------------------------|

e|-----------------------------------------------------------------|
B|-----------------------------------------------------------------|
G|-----------------------------------------------------------------|
D|-----------------------------------------------------------------|
A|-2-2-2-2-2-2-2-2-2-2-2-2-2-2-2-2-6-6-6-6-6-6-6-6-6-6-6-6-6-6-6-6-|
E|-0-0-0-0-0-0-0-0-0-0-0-0-0-0-0-0-4-4-4-4-4-4-4-4-4-4-4-4-4-4-4-4-|

e|-----------------------------------------------------------------|
B|-----------------------------------------------------------------|
G|-----------------------------------------------------------------|
D|-----------------------------------------------------------------|
A|-5-5-5-5-5-5-5-5-5-5-5-5-5-5-5-5-7-7-7-7-7-7-7-7-7-7-7-7-7-7-7-7-|
E|-3-3-3-3-3-3-3-3-3-3-3-3-3-3-3-3-5-5-5-5-5-5-5-5-5-5-5-5-5-5-5-5 |

 Outro
e|------------------------------|
B|------------------------------|
G|------------------------------|
D|------------------------------|
A|-2-2-2----2-2-2----2-2-2----2-|
E|-0-0-0----0-0-0----0-0-0----0-|


 Midnight - Satan claims my soul
 Feels right - Mayhem is my goal
 Twelve times - Tolls the deadly bell
 Moonrise - Messenger of hell

 I'm a maniac, fight for hell
 Devil's on my back, obey him well

 Axeblade - Messenger of death
 Dark shade - Cuttin' of Your breath
 Night time - I'm raisin' my axe
 Mean crime - Hell open it's gates

 Possessed - By the demon's rule
 Insist - Cleavin' victim's skulls
 Torture - I don't kill in vain
 Mortals - they will die in pain


************************************

| /   slide up
| \   slide down
| h   hammer-on
| p   pull-off
| ~   vibrato
| +   harmonic
| x   Mute note
| b   Bend
| pb  Pre-bend
| br  Bend release
| pbr Pre-bend release
| brb Bend release bend

************************************
Добавлено: 03.05.2016
Другие материалы по этой песне:
  • Аккорды и текст

Страница создана 14.08.2013
http://primanota.ru/hellhammer/maniac-chords.htm
Привет, Гость.
Предлагаем пройти революционный курс по гитаре.
Подарок от PrimaNota.Ru, забирай!