PrimaNota.ru - самый крупный в мире бесплатный архив песенных текстов, аккордов, табулатур и нот


Hellhammer - Buried And Forgotten - текст песни, таба, видео

Регистрация Запомнить меня
Войти через:  Facebook Google Twitter Vk Yandex Mail.ru

Hellhammer - Buried And Forgotten - текст песни, таба, видео

Печатать
Просмотров: 117
Авторы музыки: Thomas Gabriel Warrior
Авторы текста: Thomas Gabriel Warrior
Artist: Hellhammer 
Song: Buried and Forgotten 
Album: Demon Entrails

Tabbed by:chris

Tuning:E standard

e|----------------------------------|
B|----------------------------------|
G|----------------------------------|
D|----------------------------------|
A|33333333-77777777-6666-11~5555-10~|
E|11111111-55555555-4444----3333----|

e|---------------------------------|
B|---------------------------------|
G|---------------------------------|
D|-----------9---8-----------------|
A|33333333-8-7-7-6-6---------------|
E|11111111-6---5---4---------------|

e|---------------------------------|
B|---------------------------------|
G|---------------------------------|
D|3---------4-3--------3-----------|
A|1-1-3-4-1-----4--4-3-1-----------|
E|---------------------------------|

e|----------------|------------------|
B|----------------|------------------|
G|----------------|------------------|
D|----------------|------------------|
A|----------------|8--7--10--11--12--|
E|6~~5~~8~~9~~10~~|6--5--8---9---10--|

e|------------------|-------------------|
B|------------------|-------------------|
G|------------------|-------------------|
D|------------------|-------------------|
A|33333333-99999999-|---2~----2~----2~--|
E|11111111-77777777-|1-----1-----1-----1|

e|-----------------------|
B|-----------------------|
G|0-4-0-6-0-6-0-5-0-4----|
D|-----------------------|
A|-----------------------|
E|-----------------------|

e|-----------------------|
B|-----------------------|
G|-----------------------|
D|-----------------------|
A|-----------------------|
E|0-4-0-6-0-6-0-5-0-4----|

e|-------------------------------------------------------|
B|-------------------------------------------------------|
G|-------------------------------------------------------|
D|3---------4-3-4-3--------------3-4-3----------------3--|
A|1-1-3-2-1---------4-3-------3-4------4-3-4-3-4-3~---1--|
E|----------------------4-3-4----------------------------|




Добавлено: 26.10.2015
Другие материалы по этой песне:
  • Аккорды и текст

Страница создана 30.09.2013
http://primanota.ru/hellhammer/buried-and-forgotten-chords.htm
Привет, Гость.
Предлагаем пройти революционный курс по гитаре.
Подарок от PrimaNota.Ru, забирай!