PrimaNota.ru - самый крупный в мире бесплатный архив песенных текстов, аккордов, табулатур и нот


Hellfire - Warnings - таба, бас-таба, видео

Регистрация Запомнить меня
Войти через:  Facebook Google Twitter Vk Yandex Mail.ru

Hellfire - Warnings - таба, бас-таба, видео

Печатать
Просмотров: 148
Song: Warnings
Artist: Hellfire
Album: Warnings (2009)
Notes: Look out for the fill coming out of the bridge and into the second
verse, it may look like a ton of 1's and 0's but they're actually cramped
in 10's and 11's. Just watch the rhythmic denomination.

You can listen to Hellfire at www.hellfire-metal.com

Intro: (0:00-0:19)

    E E E Q   E E E   E E E Q   E E E   E E E Q   E E E   E E E Q   E E E
E|------------------|-----------------|-----------------|-----------------|
B|------------------|-----------------|-----------------|-----------------|
G|------------------|-----------------|-----------------|-----------------|
D|------------------|-----------------|-----------------|-----------------|
A|--5-----5\8-8-----|-5-----5\8-8-----|-5-----5\8-8-----|-5-----5\8-8-----|
D|----0-0-------0-0-|---0-0-------0-0-|---0-0-------0-0-|---0-0-------0-0-|
 |                  |                 |                 |                 |
 |                  |                 |                 |                 |
 |  Let Ring        |                 |                 |             E E |
E|------------------|-----------------|-----------------|-----------------|
B|------------------|-----------------|-----------------|-----------------|
G|------------------|-----------------|-----------------|-----------------|
D|--0---------------|-----------------|-----------------|-------------0-0-|
A|--0---------------|-----------------|-----------------|-------------0-0-|
D|--0---------------|-----------------|-----------------|-------------0-0-|
                                                                  PM: . .


    E E E Q   E E E   E E E Q   E E E   E E E Q   E E E   E E E Q   E E E
E|------------------|-----------------|-----------------|-----------------|
B|------------------|-----------------|-----------------|-----------------|
G|------------------|-----------------|-----------------|-----------------|
D|------------------|-----------------|-----------------|-----------------|
A|--5-----5\8-8-----|-5-----5\8-8-----|-5-----5\8-8-----|-5-----5\8-8-----|
D|----0-0-------0-0-|---0-0-------0-0-|---0-0-------0-0-|---0-0-------0-0-|
 |                  |                 |                 |                 |
 |                  |                 |                 |                 |
E|------------------|-----------------|-----------------|-----------------|
B|------------------|-----------------|-----------------|-----------------|
G|------------------|-----------------|-----------------|-----------------|
D|--0---------------|-----------------|-----------------|-----------------|
A|--0---------------|-----------------|-----------------|-----------------|
D|--0---------------|-----------------|-----------------|-----------------|


    E E E Q   E E E   E E E Q   E E E   E E E Q   E E E   E E E Q   E E E
E|------------------|-----------------|-----------------|-----------------|
B|------------------|-----------------|-----------------|-----------------|
G|------------------|-----------------|-----------------|-----------------|
D|------------------|-----------------|-----------------|-----------------|
A|--5-----5\8-8-----|-5-----5\8-8-----|-5-----5\8-8-----|-5-----5\8-8-----|
D|----0-0-------0-0-|---0-0-------0-0-|---0-0-------0-0-|---0-0-------0-0-|
 |                  |                 |                 |                 |
 |                  |                 |                 |                 |
 |  Q+E    Q+E  E E | Q+E    Q+E  E E | Q+E    Q+E  E E | Q+E    Q+E  Q   |
E|------------------|-----------------|-----------------|-----------------|
B|------------------|-----------------|-----------------|-----------------|
G|------------------|-----------------|-----------------|-----------------|
D|--0-----0-----0-0-|-0-----0-----0-0-|-0-----0-----0-0-|-0-----0-----0---|
A|--0-----0-----0-0-|-0-----0-----0-0-|-0-----0-----0-0-|-0-----0-----0---|
D|--0-----0-----0-0-|-0-----0-----0-0-|-0-----0-----0-0-|-0-----0-----0---|


    E E E Q   E E E   E E E Q   E E E   E E E Q   E E E   E E E Q   E E E
E|------------------|-----------------|-----------------|-----------------|
B|------------------|-----------------|-----------------|-----------------|
G|------------------|-----------------|-----------------|-----------------|
D|------------------|-----------------|-----------------|-----------------|
A|--5-----5\8-8-----|-5-----5\8-8-----|-5-----5\8-8-----|-5-----5\8-8-----|
D|----0-0-------0-0-|---0-0-------0-0-|---0-0-------0-0-|---0-0-------0-0-|
 |                  |                 |                 |                 |
 |                  |                 |                 |                 |
 |  Q+E    Q+E  E E | Q+E    Q+E  E E | Q   Q   Q   Q   | E E E E E E E E |
E|------------------|-----------------|-----------------|-----------------|
B|------------------|-----------------|-----------------|-----------------|
G|------------------|-----------------|-----------------|-----------------|
D|--0-----0-----0-0-|-0-----0-----0-0-|-0---0---0---0---|-0-0-0-0-0-0-0-0-|
A|--0-----0-----0-0-|-0-----0-----0-0-|-0---0---0---0---|-0-0-0-0-0-0-0-0-|
D|--0-----0-----0-0-|-0-----0-----0-0-|-0---0---0---0---|-0-0-0-0-0-0-0-0-|
                                    PM: .   .   .   .     . . . . . . . .

Main Riff: (0:19-0:48)

    E E E Q   E E E   E E E Q   E E E   E E E Q   E E E   E E E Q   E E E x4
E|------------------|-----------------|-----------------|-----------------||
B|o-----------------|-----------------|-----------------|----------------o||
G|------------------|-----------------|-----------------|-----------------||
D|------------------|-----------------|-----------------|-5---------------||
A|o-5-----5\8-8-----|-5-----5\8-8-----|-5-----5\8-8-----|---8-7-5---5----o||
D|----0-0-------0-0-|---0-0-------0-0-|---0-0-------0-0-|-------------0-0-||


    Q   E Q   E Q     Q   E Q   E Q     Q   E Q   E Q     Q   E Q   E Q
E|------------------|-----------------|-----------------|-----------------|
B|------------------|-----------------|-----------------|-----------------|
G|------------------|-----------------|-----------------|-----------------|
D|--5---5-5---5-5---|-7---7-7---7-7---|-3---3-3---3-3---|-5---5-5---5-5---|
A|--5---5-5---5-5---|-7---7-7---7-7---|-3---3-3---3-3---|-5---5-5---5-5---|
D|--5---5-5---5-5---|-7---7-7---7-7---|-3---3-3---3-3---|-5---5-5---5-5---|


    Q   E Q   E Q     Q   E Q   E Q     Q   E Q   E Q     Q+E   E
E|------------------|-----------------|-----------------|-----------------|
B|------------------|-----------------|-----------------|-----------------|
G|------------------|-----------------|-----------------|-----------------|
D|--5---5-5---5-5---|-7---7-7---7-7---|-3---3-3---3-3---|-6-----6---------|
A|--5---5-5---5-5---|-7---7-7---7-7---|-3---3-3---3-3---|-6-----6---------|
D|--5---5-5---5-5---|-7---7-7---7-7---|-3---3-3---3-3---|-6-----6---------|
                                                   Stacc: .     .

Verse 1: (0:48-1:16)

'Quiet normal day...'
    E E E Q   E E E   E E E Q   E E E   E E E Q   E E E   E E E Q   E E E x4
E|------------------|-----------------|-----------------|-----------------||
B|------------------|-----------------|-----------------|-----------------||
G|------------------|-----------------|-----------------|-----------------||
D|------------------|-----------------|-----------------|-----------------||
A|--5-----5\8-8-----|-5-----5\8-8-----|-5-----5\8-8-----|-5-----5\8-8-----||
D|----0-0-------0-0-|---0-0-------0-0-|---0-0-------0-0-|---0-0-------0-0-||


    Q   E Q   E Q     Q   E Q   E Q     Q   E Q   E Q     Q   E Q   E Q
E|------------------|-----------------|-----------------|-----------------|
B|------------------|-----------------|-----------------|-----------------|
G|------------------|-----------------|-----------------|-----------------|
D|--5---5-5---5-5---|-7---7-7---7-7---|-3---3-3---3-3---|-5---5-5---5-5---|
A|--5---5-5---5-5---|-7---7-7---7-7---|-3---3-3---3-3---|-5---5-5---5-5---|
D|--5---5-5---5-5---|-7---7-7---7-7---|-3---3-3---3-3---|-5---5-5---5-5---|


    Q   E Q   E Q     Q   E Q   E Q     Q   E Q   E Q     Q+E   E
E|------------------|-----------------|-----------------|-----------------|
B|------------------|-----------------|-----------------|-----------------|
G|------------------|-----------------|-----------------|-----------------|
D|--5---5-5---5-5---|-7---7-7---7-7---|-3---3-3---3-3---|-6-----6---------|
A|--5---5-5---5-5---|-7---7-7---7-7---|-3---3-3---3-3---|-6-----6---------|
D|--5---5-5---5-5---|-7---7-7---7-7---|-3---3-3---3-3---|-6-----6---------|
                                                   Stacc: .     .

Chorus: (1:16-1:36)

'Open your eyes...'
    W                 W                 W                 Q+E   Q+E  E E  x2
E|------------------|-----------------|-----------------|-----------------||
B|o-----------------|-----------------|-----------------|----------------o||
G|--7---------------|-10--------------|-5---------------|-8-----7----7-7--||
D|--7---------------|-10--------------|-5---------------|-8-----7----7-7--||
A|o-5---------------|-8---------------|-3---------------|-6-----5----5-5-o||
D|------------------|-----------------|-----------------|-----------------||
                                                                 PM: . .


    W                 W                 W                 Q+E   Q+E  E E  x2
E|------------------|-----------------|-----------------|-----------------||
B|o-----------------|-----------------|-----------------|----------------o||
G|--7---------------|-10--------------|-5---------------|-8-----7----7-7--||
D|--5---------------|-8---------------|-3---------------|-6-----5----5-5--||
A|o-5---------------|-8---------------|-3---------------|-6-----5----5-5-o||
D|------------------|-----------------|-----------------|-----------------||
                                                                 PM: . .

Bridge: (1:36-2:14)

    W+Q                   Q   Q   Q     W+H                       E E E E
E|------------------|-----------------|-----------------|------------------|
B|o-----------------|-----------------|-----------------|------------------|
G|------------------|-----------------|-----------------|---------------10-|
D|--12--------------|-----10--15--13--|-12--------------|---------101213---|
A|o-----------------|-----------------|-----------------|------------------|
D|------------------|-----------------|-----------------|------------------|
 |                  |                 |                 |                  |
 |                  |                 |                 |                  |
 |  E E E E E E E E | E E E E E E E E | E E E E E E E E | E E E E E E E E  |
E|------------------|-----------------|-----------------|------------------|
B|o-----------------|-----------------|-----------------|------------------|
G|------------------|-----------------|-----------------|------------------|
D|------------------|-----------------|-----------------|---------------3--|
A|o-5-----5---------|-----3-3-8-8-6-6-|-5-----5---------|---------3-5-6----|
D|----0-0---0-0-0-0-|-0-0-------------|---0-0---0-0-0-0-|-0-0-0-0----------|
  PM: . .   . . . .   . .                 . .   . . . .   . . . .


    W+Q                   Q   Q   Q     W+H                       E E E E  x2
E|------------------|-----------------|-----------------|------------------||
B|------------------|-----------------|-----------------|------------------||
G|--12--------------|-----10--15--13--|-12--------------|---------131210---||
D|------------------|-----------------|-----------------|---------------13-||
A|------------------|-----------------|-----------------|------------------||
D|------------------|-----------------|-----------------|------------------||
 |                  |                 |                 |                  ||
 |                  |                 |                 |                  ||
 |  E E E E E E E E | E E E E E E E E | E E E E E E E E | E E E E E E E E  ||
E|------------------|-----------------|-----------------|------------------||
B|------------------|-----------------|-----------------|-----------------o||
G|------------------|-----------------|-----------------|------------------||
D|--5-----5---------|-----3-3-8-8-6-6-|-5-----5---------|---------6-5-3----||
A|------------------|-----------------|-----------------|---------------6-o||
D|----0-0---0-0-0-0-|-0-0-------------|---0-0---0-0-0-0-|-0-0-0-0----------||
  PM: . .   . . . .   . .                 . .   . . . .   . . . .


    E E E Q   E E E   E E E Q   E E E   E E E Q   E E E   E E E Q   E E E x2
E|------------------|-----------------|-----------------|-----------------||
B|o-----------------|-----------------|-----------------|----------------o||
G|------------------|-----------------|-----------------|-----------------||
D|------------------|-----------------|-----------------|-5---------------||
A|o-5-----5\8-8-----|-5-----5\8-8-----|-5-----5\8-8-----|---8-7-5---5----o||
D|----0-0-------0-0-|---0-0-------0-0-|---0-0-------0-0-|-------------0-0-||
 |                  |                 |                 |                 ||
 |                  |                 |                 |                 ||
 |  E E E Q   E E E | E E E Q   E E E | E E E Q   E E E | E E E Q   E E E ||
E|------------------|-----------------|-----------------|-----------------||
B|o-----------------|-----------------|-----------------|----------------o||
G|------------------|-----------------|-----------------|-----------------||
D|------------------|-----------------|-----------------|-5---------------||
A|o-5-----5\8-8-----|-5-----5\8-8-----|-5-----5\8-8-----|---8-7-5---5----o||
D|----0-0-------0-0-|---0-0-------0-0-|---0-0-------0-0-|-------------0-0-||


    E E E Q   E E E   E E E Q   E E E   E E E Q   E E E   E E E Q   E E E
E|------------------|-----------------|-----------------|-----------------|
B|------------------|-----------------|-----------------|-----------------|
G|------------------|-----------------|-----------------|-5---------------|
D|--5-----5\8-8-----|-5-----5\8-8-----|-5-----5\8-8-----|---8-7-5---5-----|
A|------------------|-----------------|-----------------|-----------------|
D|----0-0-------0-0-|---0-0-------0-0-|---0-0-------0-0-|-------------0-0-|
 |                  |                 |                 |                 |
 |                  |                 |                 |                 |
 |  E E E Q   E E E | E E E Q   E E E | E E E Q   E E E | E E E Q   E E E |
E|------------------|-----------------|-----------------|-----------------|
B|------------------|-----------------|-----------------|-----------------|
G|------------------|-----------------|-----------------|-----------------|
D|------------------|-----------------|-----------------|-5---------------|
A|--5-----5\8-8-----|-5-----5\8-8-----|-5-----5\8-8-----|---8-7-5---5-----|
D|----0-0-------0-0-|---0-0-------0-0-|---0-0-------0-0-|-------------0-0-|


    E E E Q   E E E   E E E Q   E E E   E E E Q   E E E   E E E E E E Q
E|------------------|-----------------|-----------------|-----------------|
B|------------------|-----------------|-----------------|-1110111311108---|
G|------------------|-----------------|-----------------|-----------------|
D|--5-----5\8-8-----|-5-----5\8-8-----|-5-----5\8-8-----|-----------------|
A|------------------|-----------------|-----------------|-----------------|
D|----0-0-------0-0-|---0-0-------0-0-|---0-0-------0-0-|-----------------|
 |                  |                 |                 |                 |
 |                  |                 |                 |                 |
 |  E E E Q   E E E | E E E Q   E E E | E E E Q   E E E | E E E E E E Q   |
E|------------------|-----------------|-----------------|-----------------|
B|------------------|-----------------|-----------------|-----------------|
G|------------------|-----------------|-----------------|-109-1012109-7---|
D|------------------|-----------------|-----------------|-----------------|
A|--5-----5\8-8-----|-5-----5\8-8-----|-5-----5\8-8-----|-----------------|
D|----0-0-------0-0-|---0-0-------0-0-|---0-0-------0-0-|-----------------|


Verse 2: (2:14-2:43)

'The skies are ablaze...'
    E E E Q   E E E   E E E Q   E E E   E E E Q   E E E   E E E Q   E E E x4
E|------------------|-----------------|-----------------|-----------------||
B|------------------|-----------------|-----------------|-----------------||
G|------------------|-----------------|-----------------|-----------------||
D|------------------|-----------------|-----------------|-----------------||
A|--5-----5\8-8-----|-5-----5\8-8-----|-5-----5\8-8-----|-5-----5\8-8-----||
D|----0-0-------0-0-|---0-0-------0-0-|---0-0-------0-0-|---0-0-------0-0-||


    W                 W                 W                 Q+E   Q+E  E E  x2
E|------------------|-----------------|-----------------|-----------------||
B|o-----------------|-----------------|-----------------|----------------o||
G|--7---------------|-10--------------|-5---------------|-8-----7----7-7--||
D|--7---------------|-10--------------|-5---------------|-8-----7----7-7--||
A|o-5---------------|-8---------------|-3---------------|-6-----5----5-5-o||
D|------------------|-----------------|-----------------|-----------------||
                                                                 PM: . .

Chorus: (2:43-3:21)

'Open your eyes, before you die...'
    W                 W                 W                 Q+E   Q+E  E E  x2
E|------------------|-----------------|-----------------|-----------------||
B|o-----------------|-----------------|-----------------|----------------o||
G|--7---------------|-10--------------|-5---------------|-8-----7----7-7--||
D|--7---------------|-10--------------|-5---------------|-8-----7----7-7--||
A|o-5---------------|-8---------------|-3---------------|-6-----5----5-5-o||
D|------------------|-----------------|-----------------|-----------------||
                                                                 PM: . .


    W                 W                 W                 Q+E   Q+E  E E  x2
E|------------------|-----------------|-----------------|-----------------||
B|o-----------------|-----------------|-----------------|----------------o||
G|--7---------------|-10--------------|-5---------------|-8-----7----7-7--||
D|--5---------------|-8---------------|-3---------------|-6-----5----5-5--||
A|o-5---------------|-8---------------|-3---------------|-6-----5----5-5-o||
D|------------------|-----------------|-----------------|-----------------||
                                                                 PM: . .

'Open your eyes, now you must die...'
    W                 W                 W                 Q+E   Q+E  E E  x2
E|------------------|-----------------|-----------------|-----------------||
B|o-----------------|-----------------|-----------------|----------------o||
G|--7---------------|-10--------------|-5---------------|-8-----7----7-7--||
D|--7---------------|-10--------------|-5---------------|-8-----7----7-7--||
A|o-5---------------|-8---------------|-3---------------|-6-----5----5-5-o||
D|------------------|-----------------|-----------------|-----------------||
                                                                 PM: . .


    W                 W                 W                 Q+E   Q+E  E E  x2
E|------------------|-----------------|-----------------|-----------------||
B|o-----------------|-----------------|-----------------|----------------o||
G|--7---------------|-10--------------|-5---------------|-8-----7----7-7--||
D|--5---------------|-8---------------|-3---------------|-6-----5----5-5--||
A|o-5---------------|-8---------------|-3---------------|-6-----5----5-5-o||
D|------------------|-----------------|-----------------|-----------------||
                                                                 PM: . .

Ending (3:21-4:02)

    W                 Q+E   Q+E  Q      H+Q+E        E    E Q   Q   Q  E
E|------------------|-----------------|-----------------|-----------------|
B|o-----------------|-----------------|-----------------|-----------------|
G|--7---------------|-10----9---------|-----------------|-7-9---10--9-----|
D|------------------|------------10---|-10-----------10-|--------------10-|
A|o-----------------|-----------------|-----------------|-----------------|
D|------------------|-----------------|-----------------|-----------------|
 |                  |                 |                 |                 |
 |                  |                 |                 |                 |
 |  W               | W               | W               | Q+E   Q+E  E E  |
E|------------------|-----------------|-----------------|-----------------|
B|o-----------------|-----------------|-----------------|-----------------|
G|--7---------------|-10--------------|-5---------------|-8-----7----7-7--|
D|--7---------------|-10--------------|-5---------------|-8-----7----7-7--|
A|o-5---------------|-8---------------|-3---------------|-6-----5----5-5--|
D|------------------|-----------------|-----------------|-----------------|
                                                                 PM: . .


    W                 Q+E   Q+E  Q      H+Q+E        E    E Q   Q   Q  E
E|------------------|-----------------|-----------------|-----------------|
B|------------------|-----------------|-----------------|-----------------|
G|--7---------------|-10----9---------|-----------------|-7-9---10--9--10-|
D|------------------|------------10---|-10-----------10-|-----------------|
A|------------------|-----------------|-----------------|-----------------|
D|------------------|-----------------|-----------------|-----------------|
 |                  |                 |                 |                 |
 |                  |                 |                 |                 |
 |  W               | W               | W               | Q+E   Q+E  E E  |
E|------------------|-----------------|-----------------|-----------------|
B|------------------|-----------------|-----------------|-----------------|
G|--7---------------|-10--------------|-5---------------|-8-----7----7-7--|
D|--7---------------|-10--------------|-5---------------|-8-----7----7-7--|
A|--5---------------|-8---------------|-3---------------|-6-----5----5-5--|
D|------------------|-----------------|-----------------|-----------------|
                                                                 PM: . .


    W                 Q+E   Q+E  Q      H+Q+E        E    E Q   Q   Q  E
E|------------------|-----------------|-----------------|-----------------|
B|--8---------------|-11----10--------|-----------------|-8-10--11--10----|
G|------------------|------------10---|-10-----------10-|--------------10-|
D|------------------|-----------------|-----------------|-----------------|
A|------------------|-----------------|-----------------|-----------------|
D|------------------|-----------------|-----------------|-----------------|
 |                  |                 |                 |                 |
 |                  |                 |                 |                 |
 |  W               | W               | W               | Q+E   Q+E  E E  |
E|------------------|-----------------|-----------------|-----------------|
B|------------------|-----------------|-----------------|----------------o|
G|--7---------------|-10--------------|-5---------------|-8-----7----7-7--|
D|--5---------------|-8---------------|-3---------------|-6-----5----5-5--|
A|--5---------------|-8---------------|-3---------------|-6-----5----5-5-o|
D|------------------|-----------------|-----------------|-----------------|
                                                                 PM: . .


    W                 Q+E   Q+E  Q      H+Q+E        E    Q+E   Q+E  Q    x2
E|------------------|-----------------|-----------------|-----------------||
B|--8---------------|-11----10--------|-----------------|-8--------------o||
G|------------------|------------10---|-10-----------10-|-------10---9----||
D|------------------|-----------------|-----------------|-----------------||
A|------------------|-----------------|-----------------|----------------o||
D|------------------|-----------------|-----------------|-----------------||
 |                  |                 |                 |                 ||
 |                  |                 |                 |                 ||
 |  W               | W               | W               | Q+E   Q+E  E E  ||
E|------------------|-----------------|-----------------|-----------------||
B|------------------|-----------------|-----------------|----------------o||
G|--7---------------|-10--------------|-5---------------|-8-----7----7-7--||
D|--5---------------|-8---------------|-3---------------|-6-----5----5-5--||
A|--5---------------|-8---------------|-3---------------|-6-----5----5-5-o||
D|------------------|-----------------|-----------------|-----------------||
                                                                 PM: . .


    Ending
E|------------------|
B|------------------|
G|--7---------------|
D|------------------|
A|------------------|
D|------------------|
 |                  |
 |                  |
E|------------------|
B|------------------|
G|--7\--------------|
D|--7\--------------|
A|--5\--------------|
D|------------------|
Добавлено: 24.02.2012
Вам также может быть интересно:
Другие материалы по этой песне:
  • Аккорды и текст

Страница создана 24.02.2012
http://primanota.ru/hellfire/warnings-chords.htm
Привет, Гость.
Предлагаем пройти революционный курс по гитаре.
Подарок от PrimaNota.Ru, забирай!