PrimaNota.ru - самый крупный в мире бесплатный архив песенных текстов, аккордов, табулатур и нот


Hellacopters - Toys And Flavors - текст песни, бас-таба, видео

Регистрация Запомнить меня
Войти через:  Facebook Google Twitter Vk Yandex Mail.ru

Hellacopters - Toys And Flavors - текст песни, бас-таба, видео

Печатать
Просмотров: 27
Main
G |-----------------------|
D |---4-5-----------------|
A |-------6-------6-------|     7x
E |-8-------6-4-4---6-5-6-|
                     (4)
                     (0)

Main variant
G |-----------------------|
D |-----------------------|     1x
A |---------------6-------|
E |-8-8-8-8-8-4-4---6-4-6-|



Main
G |-----------------------|
D |---4-5-----------------|
A |-------6-------6-------|     3x
E |-8-------6-4-4---6-5-6-|
                     (4)
                     (0)

Main variant
G |-----------------------|
D |-----------------------|     1x
A |---------------6-------|
E |-8-8-8-8-8-4-4---6-4-6-|


Main
G |-----------------------|
D |---4-5-----------------|
A |-------6-------6-------|     3x
E |-8-------6-4-4---6-5-6-|
                     (4)
                     (0)

Main variant
G |-----------------------|
D |-----------------------|     1x
A |---------------6-------|
E |-8-8-8-8-8-4-4---6-4-6-|



Between verse and chorus
G |------------------------------------------------------------------|
D |------------------------------------------------------------------|
A |---6-8---6-8---6-8---6-8---6-8---6-8------------------------------|        1x
E |-8-----8-----8-----8-----8-----8-----8-8-8-8-8-8-8-8-8------------|


Chorus
G |-------------------8----------------------------------------------------|
D |------------------6--------------------------6--------------------------|
A |---------3-33-6-6------------3-33333333-----6---------------6-8---------|
E |-4-4-44--------------6-6-66------------4-4----6-66666666-8-----8--------|     1x




Interlude
G |-------------------------------------------------------------------------------|
D |-------------------------------------------------------------------------------|
A |-8-8-88-6-6---6-66--------------------6-8-8-88-6-6---6-66--------------------6-| 1x
E |------------8------6h8-8-88-8-8888888--------------8------6h8-8-88-8-8888888---|

G |------------------------------------------------------------------|
D |------------------------------------------------------------------|
A |-8-8-88-6-6---6-6-6--------------------6-6-6-6-6-6-8-8-8-8-8-6----|              1x
E |------------8-------6h8-8-88-8-8888888-------------------------8~-|


Main
G |-----------------------|
D |---4-5-----------------|
A |-------6-------6-------|     7x
E |-8-------6-4-4---6-5-6-|
                     (4)
                     (0)

Main variant
G |-----------------------|
D |-----------------------|     1x
A |---------------6-------|
E |-8-8-8-8-8-4-4---6-4-6-|



Main
G |-----------------------|
D |---4-5-----------------|
A |-------6-------6-------|     3x
E |-8-------6-4-4---6-5-6-|
                     (4)
                     (0)



Chorus
G |-------------------8---------------------------------------------------|
D |------------------6--------------------------6-------------------------|
A |---------3-33-6-6------------3-33333333-----6---------------6-8--------|
E |-4-4-44--------------6-6-66------------4-4----6-66666666-8-----8-------|    2x



Between verse and chorus
G |---------------------------------------------------------------------|
D |---------------------------------------------------------------------|
A |---6-8---6-8---6-8---6-8---6-8---6-8---------------------------------|
E |-8-----8-----8-----8-----8-----8-----8-8-8-8-8-8-8-8-8---------------|            1x
Добавлено: 29.04.2016
Другие материалы по этой песне:

Страница создана 31.03.2012
http://primanota.ru/hellacopters/toys-and-flavors-chords.htm
Привет, Гость.
Предлагаем пройти революционный курс по гитаре.
Подарок от PrimaNota.Ru, забирай!