PrimaNota.ru - самый крупный в мире бесплатный архив песенных текстов, аккордов, табулатур и нот


Hellacopters - I Wanna Touch - текст песни, таба, видео

Регистрация Запомнить меня
Войти через:  Facebook Google Twitter Vk Yandex Mail.ru

Hellacopters - I Wanna Touch - текст песни, таба, видео

Печатать
Просмотров: 154
                               I WANNA TOUCH
                              THE HELLACOPTERS

Like you know with Hellacopters, there is two guitars. For you, I tabbed the two guitars 
this song. Maybe you can find a easier way to play the intro but for me, that's the 
way... Sorry but I don't tabbed the solo. I don't know how to play it. I hope you'll enjoy. Let's Rock!!

*********NOTE:The second guitar begin after the first in the intro.**********

INTRO (and CHORUS later):
           -The First guitar play:-
e|----------------------------| x4
B|--4------------2-2--5-4--4--|
G|----6-------4--2-2--4-4--4--|
D|------7---6-----------------|
A|4-------7-------------------|
E|----------------------------|

           -The Second guit play:-

e|----------------------------| x3
B|--4-------------------------|
G|----6-------4-------9-------|
D|------7---6----7-7--9-9--9--|
A|4-------7------7-7--7-9--9--|
E|---------------5-5----7--7--|

VERSE:
                  The First:
|9--9-9---9--9-9--------9--9-9--5--5-5-4--4-4--| x2
|9--9-9---9--9-9-7------9--9-9--4--4-4-4--4-4--|
|------------------9-10------------------------|
|----------------------------------------------|
|----------------------------------------------|
|----------------------------------------------|

|2--2-2-------2--2-2--2--2-2--5--5-5-4--4-4-|
|2--2-2-0-----2--2-2--2--2-2--4--4-4-4--4-4-|
|---------2-3-------------------------------|
|-------------------------------------------|
|-------------------------------------------|
|-------------------------------------------|

|9--9-9--------9--9-9------------------------|
|9--9-9-7------9--9-9------------------------|
|---------9-10-------------------------------|
|--------------------------4-----------------|      s = slide
|----------------------6-8---8-6-2s4-6-------|
|--------------------------------------------|

                  The Second:
|----------------------------------------------------------| x2
|----------------------------------------------------------|
|---------------------------------------------9-9-9--------|
|6-6-8-6-6-6-8-6--6-8-6-6-6-8-6-6-6-8-6-6-6-8-9-9-9-9-9-9--|
|4-4-4-4-4-4-4-4--4-4-4-4-4-4-4-4-4-4-4-4-4-4-7-7-7-9-9-9--|
|---------------------------------------------------7-7-7--|

|-------------------------------------------------------------------------------|
|-------------------------------------------------------------------------------|
|-------------------------------------------------------------------9-9-9-------|
|11-11-13-11-11-11-13-11--11-13-11-11-11-13-11-11-11-13-11-11-11-13-9-9-9-9-9-9-|
|9--9--9--9--9--9--9--9---9--9--9--9--9--9--9--9--9--9--9--9--9--9--7-7-7-9-9-9-|
|-------------------------------------------------------------------------7-7-7-|

|--------------------------------------------------------------|
|--------------------------------------------------------------|
|--------------------------------------------------------------|
|--------------------------------------------------------------|
|6-6-8-6-6-6-8-6-6-6-8-6-6-6-8-6-6-6-8-6-6-6-8-6-6-6-8-6-6-6-8-|
|4-4-4-4-4-4-4-4-4-4-4-4-4-4-4-4-4-4-4-4-4-4-4-4-4-4-4-4-4-4-4-|

CHORUS (the INTRO before) x4
SOLO
VERSE
CHORUS x8

With that, you'll be able to play the whole song(without the solo)because after it, 
the same thing I learned to you. I hope it's not too much involved! I'm the God Of Music and 
forget that I will always be it!Cya!

http://www.youtube.com/watch?v=h-Bi4VZPgSU  if you wanna see the song live. I advise you 
put the volume high!!! That ROCK!!!
Добавлено: 30.06.2012
Другие материалы по этой песне:
  • Аккорды и текст

Страница создана 13.04.2012
http://primanota.ru/hellacopters/i-wanna-touch-chords.htm
Привет, Гость.
Предлагаем пройти революционный курс по гитаре.
Подарок от PrimaNota.Ru, забирай!