PrimaNota.ru - самый крупный в мире бесплатный архив песенных текстов, аккордов, табулатур и нот


Hellacopters - Gotta Get Some Action Now - текст песни, таба, видео

Регистрация Запомнить меня
Войти через:  Facebook Google Twitter Vk Yandex Mail.ru

Hellacopters - Gotta Get Some Action Now - текст песни, таба, видео

Печатать
Просмотров: 160
Уроки эстрадного вокала в Санкт-Петербурге
-------------------------------------------------------------------------------
(Gotta Get Some Action) Now! – The Hellacopters
-------------------------------------------------------------------------------
Tabbed by: Bad Dream
Email: new_diesel_music@hotmail.co.uk

Tuning: Standard (EADGBE)

Intro:
Guitar1
E|--------------------------------------|
B|-------11-----------------------------|
G|---10b~~~~10r--8-10-8-10p8----8-10----|
D|---------------------------10---------|
A|--------------------------------------|
E|--------------------------------------| (x7)

E|--------------------------------------------|
B|--------11----------------------------------|
G|----10b~~~~10r--8-10b-(10)-(10)-(10)-(10)---|
D|--------------------------------------------|
A|--------------------------------------------|
E|--------------------------------------------| (x1)

Guitar2
(Joins in on 4th repeat intro)
E|-----------------------------|
B|-----------------------------|
G|-----------------------------|
D|-----------------------------|
A|--6-----8-----10--10-(x7)----|
E|--4--0--6--0--8---8----------| (x3)

E|-----------------------------|
B|-----------------------------|
G|-----------------------------|
D|-----------------------------|
A|--6-----8-----10-------------|
E|--4--0--6--0--8--------------| (x1

Interlude:
Guitar1
E|-----------------------------------------------------------------------------|
B|--------------------------------------------------------11b-(hold bend)------|
G|-----------------------------------------------------------------------------|
D|---/-----\-------------------------------------------------------------------|
A|---/-----\-------------------------------------------------------------------|
E|---/-----\-------------------------------------------------------------------|

Guitar2
E|-----------------------------------------------------------------------------|
B|-----------------------------------------------------------------------------|
G|-----------------------------------------------------------------------------|
D|----------5--0h6--8--8--0--5--0h6--8--8--0--5--0h6--8--8--0--5--0h6--8--8----|
A|----------3--0h6--8--8--0--3--0h6--8--8--0--3--0h6--8--8--0--3--0h6--8--8----|
E|-----------------------------------------------------------------------------|

Both guitars
E|-----------------------------------------------------------------------------|
B|-----------------------------------------------------------------------------|
G|-----------------------------------------------------------------------------|
D|---0--5--0h6--8--8--0--5--0h6--8--8--0--5--0h6--8--8--0--5--0h6--8--8--------|
A|---0--3--0h6--8--8--0--3--0h6--8--8--0--3--0h6--8--8--0--3--0h6--8--8--------|
E|-----------------------------------------------------------------------------|
Verse:
Both guitars
E|---------------------------------------------------------------------|
B|---------------------------------------------------------------------|
G|---------------------------------------------------------------------|
D|-------------------8----------5---0h6--8--8--0--5---0h6--8--8--0-----|
A|---10----10--10----6-----8----3---0h6--8--8--0--3---0h6--8--8--0-----|
E|---8-----8---8-----------6-------------------------------------------| (x4)

Fill:
Guitar1
E|------------------------------|
B|-------11---------------------|
G|---10b~~~~10r---8--5----------|
D|------------------------------|
A|------------------------------|
E|------------------------------|

Chorus:
Both guitars
E|--------------------------------|      |----------------| end of 1st Chorus
B|--------------------------------|      |----------------|
G|--------------------------------|      |----------------|
D|--------8---3--0--5--5555555----|      |----------------|
A|----6---6---1--0--3--3333333----|      |----8------5----|
E|----4---------------------------| (x3) |----6------3----|

Interlude (both guitars part)

Verse (x4)again

Chorus

E|--------------------------| end of 2nd Chorus
B|--------------------------|
G|--------------------------|
D|--------------------------|
A|---8----5----8--8-----5---|
E|---6----3----6--6-----3---|

Interlude (both guitars part) again (+ feedback)

Solo

I haven't done it but just mess about in the C blues scale, it works for me.

Chorus 1

Outro:
Guitar1
E|--------------------------------------|
B|-------11-----------------------------|
G|---10b~~~~10r--8-10-8-10p8----8-10----|
D|---------------------------10---------|
A|--------------------------------------|
E|--------------------------------------| (x3)

E|------------------------------------------------|
B|-------11--------11b-(11)-(11)-(11)-(11)--------|
G|---10b~~~~10r--8--------------------------------|
D|------------------------------------------------|
A|------------------------------------------------|
E|------------------------------------------------|

E|--------------------------------------|
B|-------11-----------------------------|
G|---10b~~~~10r--8-10-8-10p8----8-10----|
D|---------------------------10---------|
A|--------------------------------------|
E|--------------------------------------| (x3)

E|-----------------------------|
B|-----------------------------|
G|-----------------------------|
D|-------8-------5-----5x------|
A|---10--6--8-8--3-----3x------|
E|---8------6-6----------------|


| / slide up
| \ slide down
| H hammer-on
| P pull-off
| ~ vibrato
| + harmonic
| X Mute note
===============================================================================

Добавлено: 20.04.2012
Другие материалы по этой песне:

Страница создана 12.03.2012
http://primanota.ru/hellacopters/gotta-get-some-action-now-chords.htm
Привет, Гость.
Предлагаем пройти революционный курс по гитаре.
Подарок от PrimaNota.Ru, забирай!