PrimaNota.ru - самый крупный в мире бесплатный архив песенных текстов, аккордов, табулатур и нот


Hellacopters - Everythings On Tv - текст песни, таба, видео

Регистрация Запомнить меня
Войти через:  Facebook Google Twitter Vk Yandex Mail.ru

Hellacopters - Everythings On Tv - текст песни, таба, видео

Печатать
Просмотров: 177
The Hellacopters
Everything's on tv
Rock n roll is dead
Tabbed by Andreas Lindström

             Good Luck!

e-------------------------------------------------|
b---------1-----------3-----------1--33--2--1--0--| three times
g------2-----2-----2-----------2------------------|
d---3-----------0-----------2---------------------|
a------------------------0------------------------|
e-------------------------------------------------|

e-------------------------------|
b--------1-------3--1-----------|
g-----2-------2-----2-----------| fourth time
d--3--------0-------2-----------|
a-------------------------------|
e-------------------------------|

e-------------------------------------------------|
b-------------------------------------------------|
g--999--66-------------------------------77-------|
d--999--66--6-----------------------333--77--7----|
a--777--44--6--------3--5--3--------333--55--7----|
e-----------4--3--5-----------5--3--111------5----|

Rock On!
Добавлено: 12.06.2012
Другие материалы по этой песне:

Страница создана 25.02.2012
http://primanota.ru/hellacopters/everythings-on-tv-chords.htm
Привет, Гость.
Предлагаем пройти революционный курс по гитаре.
Подарок от PrimaNota.Ru, забирай!