PrimaNota.ru - самый крупный в мире бесплатный архив песенных текстов, аккордов, табулатур и нот


Hellacopters - Envious - текст песни, таба, видео

Регистрация Запомнить меня
Войти через:  Facebook Google Twitter Vk Yandex Mail.ru

Hellacopters - Envious - текст песни, таба, видео

Печатать
Просмотров: 146
Band: The Hellacopters
Song: Envious
Album: High Visibility (Track 13)
Tuning: tune down 1/2 step
Tabbed by Marc
questions to: al_katzone@web.de

                                x2
|---------------------------------|---------------------|
|---------------------------------|---after 2nd time----|
|--------------11x----------------|---------------------|
|-12~----5~----11x--11x----12~----|---------------------|
|-12~----5~-----9x--11x----12~----|---10h12-10----------|
|-10~----3~----------9x----10~----|------------13-10----|

|-------------------------------------------------------|
|-------------------------------------------------------|
|-77-99-1010-11-12~--x----10----12----------------------|
|-77-99-1010-11-12~--x-12-10-10-12-12-------------------|
|-55-77--8-8--9-10~--x-12--8-10-10-12--10h12-10---------|
|----------------------10-----8----10-----------13-10-8-|

|-------------------------------------------------------|
|-------------------------------------------------------|
|--------------11x--------------------------------------|
|-12~----5~----11x--11x----12~--------------------------|
|-12~----5~-----9x--11x----12~--------------------------|
|-10~----3~----------9x----10~--------------------------|

|---------------|-1st time--|-2nd time------------------| x2
|---------------|-----------|---------------------------|
|-77------------|-1010------|-1010-1212-----------------|
|-77------------|-1010-1010-|-1010-1212-----------------|
|-55-7p5-----5--|--8-8-1010-|--8-8-1010-----------------|
|--------5-8----|-------8-8-|---------------------------|

|-------------------------------------------------------| x8
|-------------------------------------------------------|
|-77-------------1010-----------------------------------|
|-77-------------1010-1010------------------------------|
|-55-7p5-----5----8-8-1010------------------------------|
|--------5-8-----------8-8------------------------------|

|---play 3 times---|------------------------------------|
|------------------|------------------------------------|
|------------------|-12~-x----10----12------------------|
|-10-121212-10-12--|-12~-x-12-10-10-12-12---------------|
|-10-121212-10-12--|-10~-x-12--8-10-10-12---------------|
|--8-101010--8-10--|-------10-----8----10---------------|

                                x2
|---------------------------------|---------------------|
|---------------------------------|---after 2nd time----|
|--------------11x----------------|---------------------|
|-12~----5~----11x--11x----12~----|---------------------|
|-12~----5~-----9x--11x----12~----|---10h12-10----------|
|-10~----3~----------9x----10~----|------------13-10----|

|-------------------------------------------------------|
|-------------------------------------------------------|
|-77-99-1010-11-12~--x----10----12----------------------|
|-77-99-1010-11-12~--x-12-10-10-12-12-------------------|
|-55-77--8-8--9-10~--x-12--8-10-10-12--10h12-10---------|
|----------------------10-----8----10-----------13-10-8-|

|-------------------------------------------------------|
|-------------------------------------------------------|
|--------------11x--------------------------------------|
|-12~----5~----11x--11x---------------------------------|
|-12~----5~-----9x--11x---------------------------------|
|-10~----3~----------9x---------------------------------|

|-------------------------------------------------------| x4
|-------------------------------------------------------|
|-77-------------1010-----------------------------------|
|-77-------------1010-1010------------------------------|
|-55-7p5-----5----8-8-1010------------------------------|
|--------5-8-----------8-8------------------------------|

|---play 3 times---|------------------------------------|
|------------------|------------------------------------|
|------------------|-12~-x----10----12------------------|
|-10-121212-10-12--|-12~-x-12-10-10-12-12---------------|
|-10-121212-10-12--|-10~-x-12--8-10-10-12---------------|
|--8-101010--8-10--|-------10-----8----10---------------|

                                x2
|---------------------------------|---------------------|
|---------------------------------|---after 2nd time----|
|--------------11x----------------|---------------------|
|-12~----5~----11x--11x----12~----|---------------------|
|-12~----5~-----9x--11x----12~----|---10h12-10----------|
|-10~----3~----------9x----10~----|------------13-10----|

|-------------------------------------------------------|
|-------------------------------------------------------|
|-77-99-1010-11-12~--x----10----12----------------------|
|-77-99-1010-11-12~--x-12-10-10-12-12-------------------|
|-55-77--8-8--9-10~--x-12--8-10-10-12--10h12-10---------|
|----------------------10-----8----10-----------13-10-8-|

|-------------------------------------------------------|
|-------------------------------------------------------|
|--------------11x--------------------------------------|
|-12~----5~----11x--11x----12~--------------------------|
|-12~----5~-----9x--11x----12~--------------------------|
|-10~----3~----------9x----10~--------------------------|

|-------------------------------------------------------|
|-------------------------------------------------------|
|----------------9~-------------------------------------|
|-9~---5~---9~---9~---5~---7~---12----------------------|
|-9~---5~---9~---7~---5~---7~---12-(x8)-----------------|
|-7~---3~---7~--------3~---5~---10----------------------|

Solo

|-------------------------------------------------------| x2
|-------------------------------------------------------|
|--------------11x--------------------------------------|
|-12~----5~----11x--11x----12~--------------------------|
|-12~----5~-----9x--11x----12~--------------------------|
|-10~----3~----------9x----10~--------------------------|

|-------------------------------------------------------|
|-------------------------------------------------------|
|-77-99-1010-11-12~--x----10----12----------------------|
|-77-99-1010-11-12~--x-12-10-10-12-12-------------------|
|-55-77--8-8--9-10~--x-12--8-10-10-12--10h12-10---------|
|----------------------10-----8----10-----------13-10-8-|

|-------------------------------------------------------|
|-------------------------------------------------------|
|--------------11x--------------------------------------|
|-12~----5~----11x--11x----12~--------------------------|
|-12~----5~-----9x--11x----12~--------------------------|
|-10~----3~----------9x----10~--------------------------|

|--------------|--1st time--|--2nd time-----------------|
|--------------|------------|---------------------------|
|-77-----------|-1010-------|-10------------------------|
|-77-----------|-1010-1010--|-10-10101010---------------|
|-55-7p5-----5-|--8-8-1010--|--8-10101010---------------|
|--------5-8---|-------8-8--|-----8-8-8-8---------------|

|-------------------------------------------------------| x6
|-------------------------------------------------------|
|-77-------------1010-----------------------------------|
|-77-------------1010-1010------------------------------|
|-55-7p5-----5----8-8-1010------------------------------|
|--------5-8-----------8-8------------------------------|

|---play 3 times---|------------------------------------|
|------------------|------------------------------------|
|------------------|-12~-x----10----12------------------|
|-10-121212-10-12--|-12~-x-12-10-10-12-12---------------|
|-10-121212-10-12--|-10~-x-12--8-10-10-12---------------|
|--8-101010--8-10--|-------10-----8----10---------------|

                                 x2
|---------------------------------|---------------------|
|---------------------------------|---after 1st time----|
|--------------11x----------------|---------------------|
|-12~----5~----11x--11x----12~----|---------------------|
|-12~----5~-----9x--11x----12~----|---10h12-10----------|
|-10~----3~----------9x----10~----|------------13-10----|


|-------------------------------------------------------|
|-------------------------------------------------------|
|-77-99-1010-11-12~--x----10----12----------------------|
|-77-99-1010-11-12~--x-12-10-10-12-12-------------------|
|-55-77--8-8--9-10~--x-12--8-10-10-12--10h12-10---------|
|----------------------10-----8----10-----------13-10-8-|

                                 x
|---------------------------------|---------------------|
|---------------------------------|---after 3rd time----|
|--------------11x----------------|---------------------|
|-12~----5~----11x--11x----12~----|---------------------|
|-12~----5~-----9x--11x----12~----|---10h12-10----------|
|-10~----3~----------9x----10~----|------------13-10----|


|-------------------------------------------------------|
|-------------------------------------------------------|
|-77-99-1010-11-12~--x----10----12----------------------|
|-77-99-1010-11-12~--x-12-10-10-12-12-------------------|
|-55-77--8-8--9-10~--x-12--8-10-10-12--10h12-10---------|
|----------------------10-----8----10-----------13-10-8-|

|-------------------------------------------------------|
|-------------------------------------------------------|
|--------------11x--------------------------------------|
|-12~----5~----11x--11x----12~--------------------------|
|-12~----5~-----9x--11x----12~--------------------------|
|-10~----3~----------9x----10~--------------------------|

That's it, prety easy Hellacopters song!!
The solos are in work!!!
Cheers & Beers from Germany!!!
Добавлено: 18.06.2012
Другие материалы по этой песне:
  • Аккорды и текст

Страница создана 29.02.2012
http://primanota.ru/hellacopters/envious-chords.htm
Привет, Гость.
Предлагаем пройти революционный курс по гитаре.
Подарок от PrimaNota.Ru, забирай!