PrimaNota.ru - самый крупный в мире бесплатный архив песенных текстов, аккордов, табулатур и нот


Hella - Osaka - таба, видео

Регистрация Запомнить меня
Войти через:  Facebook Google Twitter Vk Yandex Mail.ru

Hella - Osaka - таба, видео

Печатать
Просмотров: 141
Band: Hella
Song: Osaka
Album: Tripper
Tuning: EAEG#CE

Tab by: Henrik Iversen


                                                 Trem picking
|------------------------------------------------------------------|
|------------------------------------------------------------------|
|-14-14--14-14--12-12--12-12--14-14--14-14--14-15-14-12-10-12-10-7-|
|-11-11--11-11--11-11--11-11--11-11--11-11-------------------------|
|-11-11--11-11--11-11--11-11--11-11--11-11-------------------------|
|-11-11--11-11--11-11--11-11--11-11--11-11-------------------------|

|------------------------------------------------------------------|
|------------------------------------------------------------------|
|-14-14--14-14--12-12--12-12--14-14--14-14--------------------/19--|
|-12-12--12-12--12-12--12-12--12-12--12-12--12-14-15-12-14-12------|
|-11-11--11-11--14-14--14-14--11-11--11-11-------------------------|
|--0--0---0--0---0--0---0--0---0--0---0--0-------------------------|

                                                      With bends on 19
|-----------------------------------------------------..........----------------------|
|---------------------------------------------------- ..........----------------------|
|-19-x-x-x19-x-x-x-x-x19-15-x-x-x15-x-x-x-x15-19191919..^...^...-19-trem pick to-8----|
|--x-x-x-x-x-x-x-x-x-x-x--x-x-x-x-x-x-x-x-x-x--x-x-x-x.etc......----------------------|
|--x-x-x-x-x-x-x-x-x-x-x--x-x-x-x-x-x-x-x-x-x--x-x-x-x..........----------------------|
|-1616161616161616161616-12121212121212121212-16161616..........----------------------|


Use thumb on lower E sting. NB! keep steady rhythm on thumb.
|-7-6-6-4-4-4-4-4-7-7-6-6-4-4-4-3/--0-9-7-6-4-4p0-12p0---9-7-6p0-12p0---9--|
|--------------------------------------------------------------------------|
|--------------------------------------------------------------------------|
|--------------------------------------------------------------------------|
|--------------------------------------------------------------------------|
|-4-4-4-4-4-4-4-4-4-4-4-4-4-4-4-4/--0-0-0-0-0-0-0--0-0-0-0-0-0-0--0-0-0-0--|


|----000-----------------------444444-(/7)-|
|--------0000------------------333333-(/6)-|
|-------------0000------33333--000000------|
|------------------00---44444--000000------|
|---------------------0-22222-/444444-(/7)-|
|-0---------------------00000--------------|


Trem picking. Don't count notes, just go along with record.
|----------------------------------------------------------|
|-16161616161616161616161616161515151515151515151515151515-|
|------------------0-0-----------------0-0-----------------|
|----------------------------------------------------------|
|----------------------------------------------------------|
|----------------------------------------------------------|

Trem picking
|--------------------------------------------------------------------------------------|
|--------------------------------------------/15--12/10-12-10/8--/15--12/10-12-10/8----|
|-/15--12/10-12-10/8--/15--12/10-12-10/8------0000000000000000000000000000000000000000-|
|--0000000000000000000000000000000000000000--------------------------------------------|
|--------------------------------------------------------------------------------------|
|--------------------------------------------------------------------------------------|

|-----------------16--------16--------16--------16---------|
|-15151515151515151515151515151515151515151515151515151515-|
|--0-0-0-0-0-0-0-0-0-0-0-0-0-0-0-0-0-0-0-0-0-0-0-0-0-0-0-0-|
|----------------------------------------------------------|
|----------------------------------------------------------|
|----------------------------------------------------------|

Let strings ring                                                Trem picking
|--0----------------------------0---------------------------------------------------|
|-12p0-------------------------16p0-------------------------------------------------|
|--0---12p0---------------------0---16p0---------------------22--------22--------22-|
|-----------12p0------------x4-----------16p0-------------x3------------------------|
|-----------------------------------------------------------------------------------|
|----------------12p0-12p0--------------------16p0-16p0---------191919----191919----|
Добавлено: 02.05.2012
Другие материалы по этой песне:
  • Аккорды и текст

Страница создана 02.05.2012
http://primanota.ru/hella/osaka-chords.htm
Привет, Гость.
Предлагаем пройти революционный курс по гитаре.
Подарок от PrimaNota.Ru, забирай!