PrimaNota.ru - самый крупный в мире бесплатный архив песенных текстов, аккордов, табулатур и нот


Hella - Headless - таба, видео

Регистрация Запомнить меня
Войти через:  Facebook Google Twitter Vk Yandex Mail.ru

Hella - Headless - таба, видео

Печатать
Просмотров: 125
Band: Hella
Song: Headless
Album: Tripper
Tuning: C#G#C#F#A#D#
Tabber: Henrik Iversen

This tab doesn't always show "rhythm" or "correct" amount of notes... I'll leave that as
a challenge for you.
I hope people will help me get this tab closer to 100% correct. 
e-mail suggestions to manetmusic@hotmail.com

#1
|-----------------------|
|(3)-(3)----------------|
|(2)-(2)----------------|
|-0---0----0-0-0-0------|
|-0---0----0-0-0-0------|
|-0---0----0-0-0-0------|

#2
|-----------------------|
|-----------------------|
|-7------7------7-9-11--|
|-7-7777-7-7777-x-x--x--|
|-5-5555-5-5555-5-7--9--|
|-0-0000-0-0000-0-0--0--|

#3
|-----------------------|
|-----------------------|
|-11--11--7--7--6--7--7-|
|-10---9--6--5--4--5--x-|
|-10---9--6--5--4--5--5-|
|-10---9--6--5--4--5--0-|

#4
|------------------------------------------------------------------|---|
|-8-8-8-8-8-8-8-8-8-8-8-8-8-8-8-8--10------10-10--13-------13-13---|---|
|-5-5-5-5-5-5-5-5-5-5-5-5-6-6-6-6---x-------x--x---x--------x--x---|---|
|-----------------------------------7-x-x-x-7--7--10-x-x-x-10-10-0-|-0-|
|-----------------------------------7-x-x-x-7--7--10-x-x-x-10-10-0-|-0-|
|-3-3-3-3-4-4-4-4-5-5-5-5-6-6-6-6---7-x-x-x-7--7--10-x-x-x-10-10-0-|-0-|

#5
|--------------------------------------------------|
|(3)--------(3)---(3)-etc.-------------------------|
|(2)--------(2)---(2)------------------------------|
|-0>>>>---0--0>>>>-0-0-0-0-0-0-0-0-0-0-0-0-0-0-0-0-|
|-0>>>>---0--0>>>>-0-0-0-0-0-0-0-0-0-0-0-0-0-0-0-0-|
|-0>>>>---0--0>>>>-0-0-0-0-0-0-0-0-0-0-0-0-0-0-0-0-|

#6
|---------------------------13-13----10--|
|-7-7-7--9-9-9--10-10-10-10----------11--|
|-7-7-7--9-9-9--10-10-10-10-10-10----10--|
|-------------------------------------8--|
|-5-5-5--7-7-7---8--8--8--8--8--8-----8--|
|-4-4-4--6-6-6---8--8--8--8--8--8-----8--|

#7            fast picking
|-12--12-14-14-12-10-12-12-10-12-----12-14-14-12-10-12-12-10|
|-15-----------------------------10-------------------------|
|-14------------------------------x-------------------------|
|-12------------------------------7-------------------------|
|-12------------------------------7-------------------------|
|-12------------------------------7-------------------------|

---------12-14-14-12-10-12-12-10------|
--11-12---------------------------13--|
---x--x----------------------------x--|
---8--9---------------------------10--|
---8--9---------------------------10--|
---8--9---------------------------10--|


cont... (listen to song for amount of strokes and rhythm)
|-----15--|-14--12-14-14-12-10-12-12-10------|
|-15--12--|-12-------------------------------|
|-12--12--|-12-------------------------------|
|-12--12--|-12--------------------------etc.-|
|-12--12--|-12-------------------------------|
|-12--12--|-12-------------------------------|

#8 This part feels a bit strange. There's probably a better way... Listen for small variations.
|-------------------3---5---6---3--------------------------------------------|
|---3---5---6---3---3---3---3---3------3---5---6---3-------4-4-4-4-4-3-3-3-3-|
|---2---2---2---2---0-0-0-0-0-0-0------2---2---2---2-------3-3-3-3-3-3-3-3-3-|
|-0-0-0-0-0-0-0-0----------------------0-0-0-0-0-0-0-------1-1-1-1-1-1-1-1-1-|
|-0---------------3----------------3-5---------------(3)-1-------------------|
|-0---------------3----------------3-5---------------(3)-1-------------------|

2nd guitar for riff #7.
|-----12-14-14-12-14-14-12-14-15-----12-14-14-12-14-14-12-14-17-17-15-14-|
|------------------------------------------------------------------------|
|------------------------------------------------------------------------|
|------------------------------------------------------------------------|
|------------------------------------------------------------------------|
|------------------------------------------------------------------------|

---12-14-14-12-14-14-12-14-19---|
--------------------------------|
--------------------------------|
--------------------------------|
--------------------------------|
--------------------------------|

cont.
|-19-17-19-19-17-15-17-17-14-15-15-14-12-14-14-12-|
|-------------------------------------------------|
|-------------------------------------------------|
|-------------------------------------------------|
|-------------------------------------------------|
|-------------------------------------------------|

-----------------------------------------------------|
-----------------------------------------------------|
11--11-12-12-11-12-12-11-9--9-11-11-9-11-11-9--6--7--|
-----------------------------------------------------|
-----------------------------------------------------|
-----------------------------------------------------|

|--------------------|
|--------------------|
|-6-7-7-6-7-7-6-7-7--|
|--------------------|
|--------------------|
|--------------------|

#9 play around with these chords.
|------15---14---18---17---|
|-15---12---12---12---12---|
|-11---12---14---14---14---|
|--x---12---12---12---12---|
|--x---12---12---12---12---|
|-12---12---12---12---12---|


|------------15151510-10---1515121010-10--8876----5---|
|---------------------11--------------11-------77-7---|
|-5--7/9-7------------11--------------11----------7---|
|-5--7/9-7--------------------------------------------|
|-3--5/7-5--------------------------------------------|
|----0---0---------------0---------------0----------0-|
Добавлено: 20.05.2012
Другие материалы по этой песне:
  • Аккорды и текст

Страница создана 20.05.2012
http://primanota.ru/hella/headless-chords.htm
Привет, Гость.
Предлагаем пройти революционный курс по гитаре.
Подарок от PrimaNota.Ru, забирай!