PrimaNota.ru - самый крупный в мире бесплатный архив песенных текстов, аккордов, табулатур и нот


Hella - The Devil Isnt Red - таба, видео

Регистрация Запомнить меня
Войти через:  Facebook Google Twitter Vk Yandex Mail.ru

Hella - The Devil Isnt Red - таба, видео

Печатать
Просмотров: 59
Уроки эстрадного вокала в Санкт-Петербурге
Hella - The Devil Isn't Red
The Devil Isn't Red (2004)
5 Rue Christine / Sargent House
https://hella.bandcamp.com/

https://www.youtube.com/watch?v=qFl_V5iJto8

Thank you to Michael Lee for the tuning. Tried to get this as close as possible,
there are a few picking specifics I didn't write down for the sake of time/sanity. Enjoy!

DGDFBE

Riff 1 9X

E---------6^----|
B-----7^--6^----|
F---------------|
D--4------------|
G---------------|
D--0------------|

Riff 2
E-----------------------------------------------|
B-----------------------------------------------|        0:16
F------------------------8/6-6-6/4/6-4p0-0-2p0--|
D--6----------6---------------------------------|
G-----------------------------------------------|
D--0----------0---------------------------------|


Riff 3
E---------------------------------------------------------------------------------|
B--------------14----------------14----------------14----------------14-----------|      0:21
F--------------------------13-13-------------13-13-------------13-13--------------|
D----------------0-12-0-12-0-12-0-12-0-12-0-12-0-12-0-12-0-12-0-12-0-12-----------|
G--2------2-----------------------------------------------------------------------|
D--0------0-----------------------------------------------------------------------|


Riff 4  
E---------------------------------------------------------------------------------|
B--------------10----------------10----------------10----------------10-----------|      0:42
F----------------------------9-9---------------9-9---------------9-9--------------|
D--6------6------0-8-0-8-0-8-0-8-0-8-0-8-0-8-0-8-0-8-0-8-0-8-0-8-0-8-0------------|
G---------------------------------------------------------------------------------|
D--0------0-----------------------------------------------------------------------|


Riff 5
E----------------------------------------------|
B----------------------------------------------| 0:47
F---5-5-5-5-5-5-5-5----------------------------|
D---5-5-5-5-5-5-5-5----------------------------|
G---5-5-5-5-5-5-5-5----------------------------|
D----------------------------------------------|


Riff 6  Alternate pick  4X
E---------------------------------------------------|
B---------------------------------------------------|    0:49
F---------------------5-5-5-5-8^5-5-5-5-7^5---------|
D---6-6-6-6-6-6-4-----5-5-5-5-5-5-5-5-5-5-5---------|
G---------------------5-5-5-5-5-5-5-5-5-5-5---------|
D---0-0-0-0-0-0-0-----------------------------------|


Riff 1.2
E---------6^----------6^-----|
B-----7^--6^------7^--6^-----|   1:41
F----------------------------|
D--4------------3------------|
G----------------------------|
D--0------------0------------|


Riff 7  4X      Alternate pick
E------------------------------------------------------------------------------------------|
B------------------------------------------------------------------------------------------| 1:45
F--13-13-13-13-13-13-13-13-12-12-4-4-4-4-4-4-4-4-4-4-4-----4-4-4-4-4-4-4-4-4-4-4-4-4----4/-|
D--------------------------------4-4-4-4-4-4-4-4-4-4-4-----4-4-4-4-4-4-4-4-4-4-4-4-4----4/-|
G--11-11-11-11-11-11-11-11-10-10-------------2-2-2-2-2---------------------2-2-2-2-2----2/-|
D--0--0--0--0--10-10-9--9--0--0--2-2-3-3-4-4-0-0-0-0-0-----0-0-2-2-3-3-4-4-0-0-0-0-0----0/-|

Riff 8
E----------------------------------------------------------------------------------------|
B----------------------------------------------------------------------------------------|   2:09
F--13-13-13-13-13-13-13-13-12-------13-13-15-15-16-16-16-16-16-16-16-16-16-16------------|
D----------------------------------------------------------------------------------------|
G--11-11-11-11-11-11-11-11-10-------11-11-13-13-14-14-14-14-14-14-14-14-14-14------------|
D--0--0--0--0--10-10-9--9--0--------0--0--0--0--0--0--0--0--0--0--0--0--0--0-------------|


Riff 9  8X
E-------------------|
B-------------------|    2:14
F--17^----17--------|
D--0------0---------|
G--0------0---------|
D-------------------|

Riff 10 4X
E-------------------|
B-------------------|    2:23
F--20^----20--------|
D--0------0---------|
G--0------0---------|
D-------------------|

Riff 11
E-------------------|
B-------------------|    2:30
F--13^--------------|
D--0----------------|
G--0----------------|
D-------------------|

Riff 12
E----------------------------|
B--1415161718192021222324----|   2:36
F--1415161718192021222324----|
D--0000000000000000000000----|
G--0000000000000000000000----|
D----------------------------|


Riff 13
E---------------|
B---------------|
F--6-5------4---|
D--0-0------3---|
G--0-0--0h2-2---|
D---------------|

Riff 14  Tremolo pick
E-------------------|
B--17----20----21---|    3:41
F--16----19----20---|
D--15----18----19---|
G--14----17----18---|
D-------------------|


Riff 15
E----------------------------------------------------------------------|
B----------------------------------------------------------------------|         4:03
F--4^---4----4^---4--------13^--13----13^--12------8^--8------8^--7----|
D--0----0----0----0---------0---0------0---0-------0---0------0---0----|
G--0----0----0----0---------0---0------0---0-------0---0------0---0----|
D----------------------------------------------------------------------|


E----------------------------------------------|
B----------------------------------------------|
F--13^--13----13^--12------8^--8------8^--7----|
D---0---0------0---0-------0---0------0---0----|
G---0---0------0---0-------0---0------0---0----|
D----------------------------------------------|

E----------------------------------------------|
B----------------------------------------------|         4:17
F--17^--17----17^--16-----13^-13-----13^--12---|
D---0---0------0---0-------0---0------0---0----|
G---0---0------0---0-------0---0------0---0----|
D----------------------------------------------|


E----------------------------------------------|
B----------------------------------------------|
F---8^--8------8^--7-------5^--5------5^--4----|
D---0---0------0---0-------0---0------0---0----|
G---0---0------0---0-------0---0------0---0----|
D----------------------------------------------|

4X
E----------------------------------------------|
B----------------------------------------------|         4:28
F--17^--16----17^--16-----13^-12-----13^--12---|
D---0---0------0---0-------0---0------0---0----|
G---0---0------0---0-------0---0------0---0----|
D----------------------------------------------|


E-------------------|
B-------------------|
F--4^-------6-------|
D--0--------0-------|
G--0--------0-------|
D-------------------|

Riff 1
Riff 2
Riff 3  3X
Riff 4
Riff 5
Riff 6
Riff 3
Riff 4
Riff 5
Riff 6
Riff 1.2
Riff 7
Riff 8
Riff 9 8X
Riff 10 4X
Riff 9 4X
Riff 11 4X
Riff 12
Riff 3
Riff 13
Riff 3
Riff 13
Riff 3
Riff 13
Riff 4
Riff 5
Riff 7
Riff 8 3X
Riff 14
Riff 9 8X
Riff 10 4X
Riff 15
Добавлено: 23.12.2015
Вам также может быть интересно:
Другие материалы по этой песне:
  • Аккорды и текст

Страница создана 23.12.2015
http://primanota.ru/hella/devil-isnt-red-chords.htm
Привет, Гость.
Предлагаем пройти революционный курс по гитаре.
Подарок от PrimaNota.Ru, забирай!