PrimaNota.ru - самый крупный в мире бесплатный архив песенных текстов, аккордов, табулатур и нот


hell of a ride - Fast As Lightning - бас-таба, видео

Регистрация Запомнить меня
Войти через:  Facebook Google Twitter Vk Yandex Mail.ru

hell of a ride - Fast As Lightning - бас-таба, видео

Печатать
Просмотров: 61
Уроки эстрадного вокала в Санкт-Петербурге
------------------------------------------------------------------------------
                            Hell Of A Ride - Fast As Lightning
-------------------------------------------------------------------------------

Tuning: standard - 5 strings Bass Guitar

Tabbed By : drone89 

Band Website : http://www.hellofaride.fr/

-------------------------------------------------------------------------------

Intro :

[00:10]

G|---------------------------------------------------------------------------------|  \
D|---------------------------------------------------------------------------------|   |
A|-----------------------------------7-7-5-5---------------------------------------|   |
E|-7-7-7-7-7-7-7-7-7-7-7-7-7---5-7-5-----------7-7-7-7-7-7-7-7-7-7-7-7-7---7-5-6-7-|   |
B|---------------------------------------------------------------------------------|   |
                                                                                        \ X2
G|---------------------------------------------------------------------------------|    / X2
D|---------------------------------------------------------------------------------|   |
A|---------------------------------7-7-5-5-5---------------------------------------|   |
E|-7-7-7-7-7-7-7-7-7-7-7-7-7---5-7-5-------------7-7-7-7-7-7-7-7-7-7-7-7-7---5-0-7-|   |
B|---------------------------------------------------------------------------------|  /


Verse :

[00:30]

G|---------------------------------------------------------------------------|X2
D|---------------------------------------------------------------------------|X2
A|---------------------------------------------------------------------------|X2
E|-7\-------------------7\--------------------7\-----------------5-5-5-5-7\--|X2
B|----0---0-0-0---0-0------0---0-0-0---0-0-------0---0-0-0---0-0-------------|X2

G|---------------------------------------------------------------------------|X2   
D|---------------------------------------------------------------------------|X2
A|---------------------------------------------------------------------------|X2
E|-----------------------------------------------------------------5-5x-7/---|X2 
B|-0---0---0-0-0---0-0---3---3---3-3-3---3-3---5---5---5-5-5---5-5-----------|X2

G|-----------------------------------------------------------------------|
D|-----------------------------------------------------------------------|
A|-----------------------------------------------------------------------|
E|----------------5------------5/7-7-7------------------5--------5/7-7-7-|
B|-0--0--3p0--3p0---0---0--3p0-----------0--3p0--3p0--0---0--3p0---------|

G|---------------------------------------|
D|---------------------------------------|
A|-------------------------------------0-|
E|-7---3-3---3-3----------5-5--7---------|
B|---------------3-3--0-0--------0-3-5---|

Verse :

[01:00]

G|---------------------------------------------------------------------------------|
D|---------------------------------------------------------------------------------| 
A|-----------------------------------7-7-5-5---------------------------------------| 
E|-7-7-7-7-7-7-7-7-7-7-7-7-7---5-7-5-----------7-7-7-7-7-7-7-7-7-7-7-7-7---7-5-6-7-|  
B|---------------------------------------------------------------------------------|  
                                                                                      
G|---------------------------------------------------------------------------------|  
D|---------------------------------------------------------------------------------|   
A|---------------------------------7-7-5-5-5---------------------------------------|   
E|-7-7-7-7-7-7-7-7-7-7-7-7-7---5-7-5-------------7-7-7-7-7-7-7-7-7-7-7-7-7---5-0-7-|   
B|---------------------------------------------------------------------------------|  


G|----------------------------------------------------------------------------|
D|----------------------------------------------------------------------------|
A|----------------------------------------------------------------------------|
E|-7/--------------------7\-------------------7\-------------------5-5-5-5-7\-|
B|----0---0-0-0---0-0-------0---0-0-0---0-0------0---0-0-0---0-0--------------|

G|--------------------------------------------------------|
D|--------------------------------------------------------|
A|--------------------------------------------------------|
E|--------------------------------------------------------|
B|-0---0-0-0---0-0----0---0-0-0---0-0----0---0-0-0---0-0--|

G|--------------------------------------------------------------|
D|--------------------------------------------------------------|
A|--------------------------------------------------------------|
E|-----------------------------------------------5-5-5-7/-------|
B|-0-0-0---0-0-----0-0-0---0-0-----0-0-0---0-0------------------|


G|-----------------------------------------------------------------------|   
D|-----------------------------------------------------------------------|
A|-----------------------------------------------------------------------|
E|----------------------------------------------------------5-5x--5--5h7-|
B|-0---0--0-0-0--0-0---3--3--3-3-3--3-3---5--5--5-5-5--5-5---------------|

G|-----------------------------------------------------------------------|   
D|-----------------------------------------------------------------------|
A|-----------------------------------------------------------------------|
E|----------------------------------------------------------5-5x--7/-----|  
B|-0---0--0-0-0--0-0---3--3--3-3-3--3-3---5--5--5-5-5--5-5---------------|

G|-----------------------------------------------------------------------|
D|-----------------------------------------------------------------------|
A|-----------------------------------------------------------------------|
E|----------------5------------5/7-7-7------------------5--------5/7-7-7-|
B|-0--0--3p0--3p0---0---0--3p0-----------0--3p0--3p0--0---0--3p0---------|

G|---------------------------------------|
D|---------------------------------------|
A|-------------------------------------0-|
E|-7---3-3---3-3----------5-5--7---------|
B|---------------3-3--0-0--------0-3-5---|


Chorus:

[01:40]


G|------------------------------------------------------------------|
D|------------------------------------------------------------------|
A|--------------------2-2-2-2-------------------------4-4-4-4-------|
E|--3-3-3-3-3-3-3-3-3---------3-3-3---5-5-5-5-5-5-5-5---------5-5-5-|
B|------------------------------------------------------------------|

G|---------------------------------------------------------------------------|
D|---------------------------------------------------------------------------|
A|---------------------5-5-5-5---4-4-4-----------------------5-5-5-5---4-4-4-|
E|---------------------------------------------------------------------------|
B|-0-0-0-0-0-0-0-0-0-0-------------------0-0-0-0-0-0-0-0-0-0-----------------|

G|------------------------------------------------------------------|
D|------------------------------------------------------------------|
A|--------------------2-2-2-2-------------------------4-4-4-4-------|
E|--3-3-3-3-3-3-3-3-3---------3-3-3---5-5-5-5-5-5-5-5---------5-5-5-|
B|------------------------------------------------------------------|

G|--------------------------------------------------------------|
D|--------------------------------------------------------------|
A|--------------------------------------------------------------|
E|-7/------------7/------------7/------------7---5-5-5-5-5-5----|
B|----0-0---0-0-----0-0---0-0-----0-0---0-0---------------------|


G|------------------------------------------------------------------|
D|------------------------------------------------------------------|
A|--------------------2-2-2-2-------------------------4-4-4-4-------|
E|--3-3-3-3-3-3-3-3-3---------3-3-3---5-5-5-5-5-5-5-5---------5-5-5-|
B|------------------------------------------------------------------|

G|---------------------------------------------------------------------------|
D|---------------------------------------------------------------------------|
A|---------------------5-5-5-5---4-4-4-----------------------5-5-5-5---4-4-4-|
E|---------------------------------------------------------------------------|
B|-0-0-0-0-0-0-0-0-0-0-------------------0-0-0-0-0-0-0-0-0-0-----------------|


G|------------------------------------------------------------------|
D|------------------------------------------------------------------|
A|--------------------2-2-2-2-------------------------4-4-4-4-------|
E|--3-3-3-3-3-3-3-3-3---------3-3-3---5-5-5-5-5-5-5-5---------5-5-5-|
B|------------------------------------------------------------------|

G|--------------------------------------------------------------|
D|--------------------------------------------------------------|
A|--------------------------------------------------------------|
E|-7/------------7/------------7/------------7---5-5-5-5-5-5----|
B|----0-0---0-0-----0-0---0-0-----0-0---0-0---------------------|

Bridge :

[02:31]

G|--------------------------------------------------------------------------------|
D|--------------------------------------------------------------------------------|
A|--------------------------------------------------------------------------------|
E|--x-x-7/----x-x-7-7--7/----x-x-5-5--x-x-5-5--5-7/--x-x-7-7--7/-----------x-5-5--|
B|----------------------------------------------------------------x-x-8-8---------|

G|------------------------------------------------------------|
D|------------------------------------------------------------|
A|------------------------------------------------------------|
E|7/--------------7/-------------7/------------------x5-5--x7-|
B|---0-0-0--0--0-----0-0-0--0-0-----0-0-0--0-0--8-8-----------|

G|------------------------------------------------------------------------------------------------|
D|------------------------------------------------------------------------------------------------|
A|----------------------------------------------------------------------------------------------0-|
E|--------------7/-------------7/-------------3-3--3--5-5--5--7/---7-7/---7-7/-3-3----5-7---------|
B|-0-0-0--0--0-----0-0-0--0-0-----0-0-0--0-0--------------------------------------3-0-----0-3-5---|


Chorus:

[03:00]

G|------------------------------------------------------------------|
D|------------------------------------------------------------------|
A|--------------------2-2-2-2-------------------------4-4-4-4-------|
E|--3-3-3-3-3-3-3-3-3---------3-3-3---5-5-5-5-5-5-5-5---------5-5-5-|
B|------------------------------------------------------------------|

G|---------------------------------------------------------------------------|
D|---------------------------------------------------------------------------|
A|---------------------5-5-5-5---4-4-4-----------------------5-5-5-5---4-4-4-|
E|---------------------------------------------------------------------------|
B|-0-0-0-0-0-0-0-0-0-0-------------------0-0-0-0-0-0-0-0-0-0-----------------|

G|------------------------------------------------------------------|
D|------------------------------------------------------------------|
A|--------------------2-2-2-2-------------------------4-4-4-4-------|
E|--3-3-3-3-3-3-3-3-3---------3-3-3---5-5-5-5-5-5-5-5---------5-5-5-|
B|------------------------------------------------------------------|

G|--------------------------------------------------------------|
D|--------------------------------------------------------------|
A|--------------------------------------------------------------|
E|-7/------------7/------------7/------------7---5-5-5-5-5-5----|
B|----0-0---0-0-----0-0---0-0-----0-0---0-0---------------------|


G|------------------------------------------------------------------|
D|------------------------------------------------------------------|
A|--------------------2-2-2-2-------------------------4-4-4-4-------|
E|--3-3-3-3-3-3-3-3-3---------3-3-3---5-5-5-5-5-5-5-5---------5-5-5-|
B|------------------------------------------------------------------|

G|---------------------------------------------------------------------------|
D|---------------------------------------------------------------------------|
A|---------------------5-5-5-5---4-4-4-----------------------5-5-5-5---4-4-4-|
E|---------------------------------------------------------------------------|
B|-0-0-0-0-0-0-0-0-0-0-------------------0-0-0-0-0-0-0-0-0-0-----------------|


G|------------------------------------------------------------------|
D|------------------------------------------------------------------|
A|--------------------2-2-2-2-------------------------4-4-4-4-------|
E|--3-3-3-3-3-3-3-3-3---------3-3-3---5-5-5-5-5-5-5-5---------5-5-5-|
B|------------------------------------------------------------------|

G|--------------------------------------------------------------|
D|--------------------------------------------------------------|
A|--------------------------------------------------------------|
E|-7/------------7/------------7/------------7---5-5-5-5-5-5----|
B|----0-0---0-0-----0-0---0-0-----0-0---0-0---------------------|

Outro:

[03:03]

G|-----------------------------------------------------------------------|
D|-----------------------------------------------------------------------|
A|-----------------------------------------------------------------------|
E|----------------5------------5/7-7-7------------------5--------5/7-7-7-|
B|-0--0--3p0--3p0---0---0--3p0-----------0--3p0--3p0--0---0--3p0---------|

| /  slide up
| \  slide down
| h  hammer-on
| p  pull-off
| ~  vibrato
| +  harmonic
| x  Mute note
===============================================================================
Добавлено: 26.06.2016
Другие материалы по этой песне:
  • Аккорды и текст

Страница создана 26.06.2016
http://primanota.ru/hell-of-a-ride/fast-as-lightning-chords.htm
Привет, Гость.
Предлагаем пройти революционный курс по гитаре.
Подарок от PrimaNota.Ru, забирай!