PrimaNota.ru - самый крупный в мире бесплатный архив песенных текстов, аккордов, табулатур и нот


Hell Is For Heroes - Sick Happy - текст песни, таба, видео

Регистрация Запомнить меня
Войти через:  Facebook Google Twitter Vk Yandex Mail.ru

Hell Is For Heroes - Sick Happy - текст песни, таба, видео

Печатать
Просмотров: 129
1. Intro/Main riff.
e-|--------------------------------------------------------------|
B-|--------------------------------------------------------------|
G-|--------------------------------------------------------------|
D-|------11----11--------11----11--------11----9---------11----9-|
A-|0-0-0-0-0-0-0---0-0-0-0-0-0-0---------9-----9---------9-----9-|
D-|--------------------------------0-0-0---0-0-----0-0-0---0-0---|  X4

e-|---------------------------------------------------------------|
B-|---------------------------------------------------------------|
G-|---------------------------------------------------------------|
D-|------11----11--------11----11--------11----11--------11----11-|
A-|------9-----9---------9-----9---------9-----9---------9-----9--|
D-|9-9-9---9-9-----9-9-9---9-9-----9-9-9---9-9-----9-9-9---9-9----| X1


e-|---------------------------------------------------------------|
B-|---------------------------------------------------------------|
G-|---------------------------------------------------------------|
D-|------11----11--------11----11--------11----11--------11----11-|
A-|------9-----9---------9-----9---------9-----9---------9-----9--|
D-|0-0-0---0-0-----0-0-0---0-0-----0-0-0---0-0-----0-0-0---0-0----| X1


2a. Chorus-type-bit - Rhythm guitar.
(Well its not quite a chorus, but it's as close as we 
get to one in this song.)
 
e-|----------------------------------------------------------------|
B-|----------------------------------------------------------------|
G-|9-9---9-9-9---9-9-9---9-9-9---9---------------------------------|
D-|7-7---7-7-7---7-7-7---7-7-7---7-0-0---0-0-0---0-0-0---0-0-0---0-|
A-|7-7---7-7-7---7-7-7---7-7-7---7-0-0---0-0-0---0-0-0---0-0-0---0-|
D-|7-7---7-7-7---7-7-7---7-7-7---7-0-0---0-0-0---0-0-0---0-0-0---0-| X4

2b. Chorus-type-bit - Lead guitar.

e-|-----------------------------------------------------------------------|
B-|-----------------------------------------------------------------------|
G-|6-6--6-6-6---6-6-6---6-6-6----11-11---11-11-11--11-11-11---11-11/14----|
D-|-----------------------------------------------------------------------|
A-|4-4--4-4-4---4-4-4---4-4-4----9--9----9--9--9---9--9--9----9--9/12-----|
D-|-----------------------------------------------------------------------| x4
                                                                
3a. Middle bit - Rhythm guitar.

e-|------------------------------------------------------------------|
B-|0----------------------0------------------------------------------|
G-|4----------------------2----------------------------4-------------|
D-|4----------------------2----------------------------2-------------|
A-|2----------------------0----------------------------2-------------|
D-|----------------------------------------------------2-------------|


3b. Middle bit - Lead guitar.

e-|-------------------------------------------------------------|
B-|-------------------------------------------------------------|
G-|4-----------9---------14--13-------------11-9-----------6--4-|
D-|-------------------------------------------------------------|
A-|2-----------7---------12--11-------------9--7-----------4--2-|
D-|-------------------------------------------------------------|
                                       
e-|-------------------------------------------------------------|
B-|-------------------------------------------------------------|
G-|4--------6---7--6------------11-9-------------14--13---------|
D-|-------------------------------------------------------------|
A-|2--------4---5--4------------9--7-------------12--11---------|
D-|-------------------------------------------------------------|



4a. End bit - Rhythm guitar.

e-|----------------------------------------------------------------|
B-|----------------------------------------------------------------|
G-|99999---99999-------------------99999---99999-------------------|
D-|77777---77777---00000---00000---77777---77777---00000---00000---|
A-|77777---77777---00000---00000---77777---77777---00000---00000---|
D-|77777---77777---00000---00000---77777---77777---00000---00000---|

e-|--------------------------------------------------------------------|
B-|--------------------------------------------------------------------|
G-|99999----99999----14--16--18--19---99999----99999----14--16--18--19-|
D-|77777----77777---------------------77777----77777-------------------|
A-|77777----77777----12--14--16--17---77777----77777----12--14--16--17-|
D-|77777----77777----0----------------77777----77777----0--------------|
          
4b. End bit - Lead guitar.

e-|----------------------------------------------------------|
B-|----------------------------------------------------------|
G-|6-6-6-6-6----6-6-6-6-6----11-11-11-11-11---14-14-14-14-14-|
D-|----------------------------------------------------------|
A-|4-4-4-4-4----4-4-4-4-4----9--9--9--9--9----12-12-12-12-12-|
D-|----------------------------------------------------------| X2

e-|----------------------------------------------------------|
B-|----------------------------------------------------------|
G-|6-------------------------11------------------------------|
D-|----------------------------------------------------------|
A-|4-------------------------9-------------------------------|
D-|----------------------------------------------------------| X2 
   
e-|8-----9-----10----11----12----13----14///----|
B-|---------------------------------------------|
G-|5-----6-----7-----8-----9-----10----11///----|
D-|---------------------------------------------|
A-|---------------------------------------------|
D-|---------------------------------------------|
                                            (Slide up at finish)

5a. Outro -Rhythm guitar.

e-|-------------------------------------------------------------------------|
B-|-------------------------------------------------------------------------|
G-|-------------------------------------------------------------------------|
D-|11-11----11-11-----11-11-----11-11---------------------------------------|
A-|0--0--0--0--0---0--0--0---0--0--0--0--9--9-----9--9-----9--9-----9--9----|
D-|--------------------------------------0--0--0--0--0--0--0--0--0--0--0--0-| x2

5b. Outro - Lead guitar.

e-|----------------------------------------------|
B-|----------------------------------------------|
G-|6--------7--------9--------11-------14--------|
D-|----------------------------------------------|
A-|4--------5--------7--------9--------12--------|
D-|----------------------------------------------|
Добавлено: 06.03.2012
Другие материалы по этой песне:
  • Аккорды и текст

Страница создана 06.03.2012
http://primanota.ru/hell-is-for-heroes/sick-happy-chords.htm
Привет, Гость.
Предлагаем пройти революционный курс по гитаре.
Подарок от PrimaNota.Ru, забирай!