PrimaNota.ru - самый крупный в мире бесплатный архив песенных текстов, аккордов, табулатур и нот


Hell Is For Heroes - Night Vision - аккорды и текст, таба, видео

Регистрация Запомнить меня
Войти через:  Facebook Google Twitter Vk Yandex Mail.ru

Hell Is For Heroes - Night Vision - аккорды и текст, таба, видео

Печатать
Просмотров: 181
Night Vision
Hell Is For Heroes
		   Nightvision - Hell Is for Heroes
Drop-D Tuning
Tabbed by Michael Beattie
-----------------------------------------------------

INTRO----

Guitar 1
 |-------------------------------------------------------
 |-------------------------------------------------------
 |-------------------------------------------------------
 |--7---4------------------------------------------------X2
 |--7---4--------play these chords as necessary----------
 |--7---4------------------------------------------------



Guitar 2
 |-------------------------------------------------------
 |-------------------------------------------------------
 |---13----11------------------------13------11----------
 |-------------11---11h12p11---------------------11------x2
 |-------------------------------------------------------
 |-------------------------------------------------------



VERSE 1 (Part 1)----- (Guitar 1, clean)
 |-------------------------------------------------------
 |-------------------------------------------------------
 |-------------------------------------------------------
 |----9--9--9--9--9----6---6-4--4--4--4------------------
 |---7--7--7--7--7----4-------4--4--4--4-----------------X2
 |--7--7--7--7--7--0-4----4----4--4--4-------------------



VERSE 1 (part 2)-----  (Guitar 1, distorted)
 |-------------------------------------------------------
 |-------------------------------------------------------
 |-------------------------------------------------------
 |--0------7--------11-----------------------------------X2
 |--0--or--5--------11-----------------------------------
 |--0------0--------11-----------------------------------
 play either

** Haven't figured out what Guitar 2 plays over these chords,
will update this when I have :) **


CHORUS (Both Guitars)
 |-------------------------------------------------------
 |-------------------------------------------------------
 |-------------------------------------------------------
 |----PLAY INTRO AGAIN------------X2---------------------
 |-------------------------------------------------------
 |-------------------------------------------------------


VERSE 2 (Part 1)----- Both Guitars
 |-------------------------------------------------------
 |-------------------------------------------------------
 |-------------------------------------------------------
 |-----7----4--------------------------------------------X2
 |-----7----4--------------------------------------------
 |-----7----4--------------------------------------------

VERSE 2 (Part 2)----- Guitar 1
 |-------------------------------------------------------
 |-------------------------------------------------------
 |-------------------------------------------------------
 |--0------7--------11---(9)--------------------------------X2
 |--0--or--5--------11---(9)--------------------------------
 |--0------0--------11---(9)--------------------------------

** The chord in brackets is only played on the last time,
just before the bridge/solo comes in - listen to the song and
you'll see...**


BRIDGE------ (Guitar 1)

 |-------------------------------------------------------
 |-------------------------------------------------------
 |-------------------------------------------------------
 |---7-----4---------------------------------------------x2
 |---7-----4---------------------------------------------
 |---7-----4---------------------------------------------


            (Guitar 2)
 |-------------------------------------------------------
 |-------------------------------------------------------
 |-------------------------------------------------------X2
 |---11-12-14-16-18-19-21-19-18-~----16--11--------------
 |--------------------------------------(16)-------------
 |-------------------------------------------------------
                                  - either note -


Now play Verse (Part 2) again
Now play Chorus again 4 times
End on Guitar 1 only, clean, playing Verse Part 1, fade out.


SONG ORDER
----------
INTRO x2
VERSE (P1) x2
VERSE (P2) x2
CHORUS x2
VERSE (p1) x2
VERSE (P2) x2
BRIDGE (+SOLO) x2
VERSE (P1) x2
CHORUS X4
Fade - VERSE 1 (P1)

--------------------------

"NightVision" is a fairly easy song to play, as long as you're in Drop-d tuning,
should be fine. Most of this tab is (I hope) correct - I've started playing
this song using this tab in my band and it sounds perfect.
I've not bothered tabbing out each individual chord strum, just strum the
chords I've shown as you feel fit.
Any problems, feel free to email me!

Good luck,
Mike     
Добавлено: 08.12.2013
Другие материалы по этой песне:
  • Аккорды и текст

Страница создана 19.03.2012
http://primanota.ru/hell-is-for-heroes/night-vision-chords.htm
Привет, Гость.
Предлагаем пройти революционный курс по гитаре.
Подарок от PrimaNota.Ru, забирай!