PrimaNota.ru - самый крупный в мире бесплатный архив песенных текстов, аккордов, табулатур и нот


Hell Is For Heroes - Models For The Programme - текст песни, таба, бас-таба, видео

Регистрация Запомнить меня
Войти через:  Facebook Google Twitter Vk Yandex Mail.ru

Hell Is For Heroes - Models For The Programme - текст песни, таба, бас-таба, видео

Печатать
Просмотров: 130
Tuning: DADGBe

Intro (Bass arranged for guitar)
e|-----------------------------------------------------------------|
B|-----------------------------------------------------------------|
G|-----------------------------------------------------------------|
D|-----------------------------------------------------------------|
A|-0-0-0-0-0-0-0-0-3-3-3-3-3-3-3-3-0-0-0-0-0-0-0-0---------2-2-3-3-|
D|-------------------------------------------------2-2-2-2---------|

e|-----------------------------------------------------------------|
B|-----------------------------------------------------------------|
G|-----------------------------------------------------------------|
D|---------------------------------------------------------2-2-2-2-|
A|-0-0-0-0-0-0-0-0-3-3-3-3-3-3-3-3-0-0-0-0-0-0-0-0-----------------|
D|-------------------------------------------------2-2-2-2---------|

(taste of mercury needles in your eyes)
e|-----------------------------------------------------------------|
B|-----------------------------------------------------------------|
G|-----------------------------------------------------------------|
D|-----------------------------------------------------------------|
A|-0-0-0-0-0-0-0-0-3-3-3-3-3-3-3-3-0-0-0-0-0-0-0-0-----------------|
D|-------------------------------------------------2-2-2-2-2-2-2-2-|

(creating the need shaping hearts to kill)
e|-----------------------------------------------------------------|
B|-----------------------------------------------------------------|
G|-----------------------------------------------------------------|
D|-------------------------------------------------2-2-2-2-2-2-2-2-|
A|-0-0-0-0-0-0-0-0-3-3-3-3-3-3-3-3-0-0-0-0-0-0-0-0-----------------|
D|-----------------------------------------------------------------|

(searching for the catch settle for some change)
e|-----------------------------------------------------------------|
B|-----------------------------------------------------------------|
G|-----------------------------------------------------------------|
D|-----------------------------------------------------------------|
A|-0-0-0-0-0-0-0-0-3-3-3-3-3-3-3-3-0-0-0-0-0-0-0-0-----------------|
D|-------------------------------------------------2-2-2-2-2-2-2-2-|

(learning to adapt this is a crack down)
e|-----------------------------------------------------------------|
B|-----------------------------------------------------------------|
G|-----------------------------------------------------------------|
D|-------------------------------------------------2-2-2-2-2-2-2-2-|
A|-0-0-0-0-0-0-0-0-3-3-3-3-3-3-3-3-0-0-0-0-0-0-0-0-----------------|
D|-----------------------------------------------------------------|

Bridge (guitar 1)
e|-----10-----10-----10-----10-----10---------0-------0-------0-------0-------0----|
B|---8------8------8------8------8----8----12------12------12------12------12---12-|
G|-9------9------9------9------9--------14------14------14------14------14---------|
D|---------------------------------------------------------------------------------|
A|---------------------------------------------------------------------------------|
D|---------------------------------------------------------------------------------|

(Guitar 2)
e|---------0---------------0---------------0---------------0-------|
B|-----7-------7-------7-------7-------7-------7-------7-------7---|
G|-------7---7---7-------7---7---7-------7---7---7-------7---7---7-|
D|-9-------------------------------9-------------------------------|
A|-----------------------------------------------------------------|
D|-----------------------------------------------------------------|

Chorus
(Guitar 1)
e|--------------------------------|
B|--------------------------------|
G|--------------------------------|
D|---------8-8-7----------8-8-7---|
A|-5-5-8-5-------5--5-8-5-------5-|
D|--------------------------------|

Beginning of second verse
e|------------------------------------------------------|
B|------------------------------------------------------|
G|-----------9--7----------------------------9--7-------|
D|-----------------7-------------------------------7----|
A|------------------------------------------------------|
D|------------------------------------------------------|

Forgive me; I cannot figure out guitar 2 for the chorus.

After (whos agenda is it now*

(guitar 1)
e|---------------------------|
B|---------------------------|
G|---------------------------|
D|-888-8-7---------888-8-7---|
A|---------8---------------5-|


I'm really sorry for the incompletion of this particular tab; I have trouble with Hell 
For Heroes quiter stuff. I hope that this enough to satisfy you; it's all of Wills guitar 
at any right (yeah; I'm a rhythm guitarist first lol)
Добавлено: 24.04.2012
Другие материалы по этой песне:
  • Аккорды и текст

Страница создана 24.04.2012
http://primanota.ru/hell-is-for-heroes/models-for-the-programme-chords.htm
Привет, Гость.
Предлагаем пройти революционный курс по гитаре.
Подарок от PrimaNota.Ru, забирай!