PrimaNota.ru - самый крупный в мире бесплатный архив песенных текстов, аккордов, табулатур и нот


Hell Is For Heroes - Disconnector - текст песни, таба, видео

Регистрация Запомнить меня
Войти через:  Facebook Google Twitter Vk Yandex Mail.ru

Hell Is For Heroes - Disconnector - текст песни, таба, видео

Печатать
Просмотров: 116
Drop D tuning

Main Riff (guitar 1)
e|-----------------------------------------------------------------|
B|-2-2-2-0-0-0-2-2-2-0-0-0-2-2-0-0-2-2-2-0-0-0-2-2-2-0-0-0-2-2-0-0-|
G|-2-2-2-2-2-2-2-2-2-2-2-2-2-2-2-2-2-2-2-2-2-2-2-2-2-2-2-2-2-2-2-2-|
D|-2-2-2-2-2-2-2-2-2-2-2-2-2-2-2-2-0-0-0-0-0-0-0-0-0-0-0-0-0-0-0-0-|
A|-0-0-0-0-0-0-0-0-0-0-0-0-0-0-0-0---------------------------------|
D|-----------------------------------------------------------------|

Main Riff (guitar 2) After 'turn off the light I stole'
e|---------------------------------------------------------------------------|
B|---------------------------------------------------------------------------|
G|-6-6-6-8-8-8-10-10-10-11-11-11-11-11-11-11-6-6-6-4-4-4-2-2-2-2-2-2-2-2-2-2-|
D|---------------------------------------------------------------------------|
A|---------------------------------------------------------------------------|
D|---------------------------------------------------------------------------|

'I just need one more chance to rinse my eyes and....'

Guitar 1

e|-----------------|
B|-----------------|
G|-----------------|
D|-7-7-7-7-7-7-7-7-|
A|-----------------|
D|-----------------|


e|-----------------------------------------------------------------|
B|-----------------------------------------------------------------|
G|-----------------------------------------------------------------|
D|-7-7-7-7-7-7-7-7-7-7-7-7-7-7-7-7-0-0-0-0-0-0-0-0-0-0-0-0-0-0-0-0-|
A|-7-7-7-7-7-7-7-7-7-7-7-7-7-7-7-7-0-0-0-0-0-0-0-0-0-0-0-0-0-0-0-0-|
D|-7-7-7-7-7-7-7-7-7-7-7-7-7-7-7-7-0-0-0-0-0-0-0-0-0-0-0-0-0-0-0-0-|

Guitar 2


e|---------------------------------|
B|---------------------------------|
G|-6-6-6-4-4-4-6-6-6-4-4-4-6-6-4-4-|
D|---------------------------------|
A|-4-4-4-2-2-2-4-4-4-2-2-2-4-4-2-2-|
D|---------------------------------|


e|------------------------------------------------------------------------|
B|------------------------------------------------------------------------|
G|-6-6-6-8-8-8-10101013-13-13-13-13-13-13-6-6-6-4-4-4-2-2-2-2-2-2-2-2-2-2-|
D|------------------------------------------------------------------------|
A|-4-4-4-6-6-6-8-8-8-11-11-11-11-11-11-11-4-4-4-2-2-2-0-0-0-0-0-0-0-0-0-0-|
D|------------------------------------------------------------------------|

'So I can give myself protection when you put me down'

Guitar 1
e|------------------------------------------------------------------|
B|------------------------------------------------------------------|
G|------------------------------------------------------------------|
D|-2-----2-----2-----2------2---2---0-0-0-0-0-0-0-0-0-0-0-0-0-0-0-0-|
A|-2-----2-----2-----2------2---2---0-0-0-0-0-0-0-0-0-0-0-0-0-0-0-0-|
D|-2-----2-----2-----2------2---2---0-0-0-0-0-0-0-0-0-0-0-0-0-0-0-0-|

Guitar 2

e|---------------------------------------------------------------------|
B|---------------------------------------------------------------------|
G|----------------------------------7-7-7-9-9-9111111-12-12-121111-9-9-|
D|-2-----2------2-----2-----2---2--------------------------------------|
A|-2-----2------2-----2-----2---2---5-5-5-7-7-7-9-9-9-10-10-10-9-9-7-7-|
D|-2-----2------2-----2-----2---2--------------------------------------|x2


e|------------------------------------------------------------------------------------|
B|------------------------------------------------------------------------------------|
G|-11-11-11-11-11-11-11-11-11-11-11-11-11-11-11-11-7-7-7-9-9-9111111-12-12-12-11--9-9-|
D|------------------------------------------------------------------------------------|
A|-------------------------------------------------5-5-5-7-7-7-9-9-9-10-10-10-9-9-7-7-|
D|------------------------------------------------------------------------------------|x2


And that's all the parts to the song. The rest has already been played before in the 
so; yeah; just simply arrange and you'll see that's all you need. Peace!
Добавлено: 29.07.2012
Другие материалы по этой песне:

Страница создана 31.03.2012
http://primanota.ru/hell-is-for-heroes/disconnector-chords.htm
Привет, Гость.
Предлагаем пройти революционный курс по гитаре.
Подарок от PrimaNota.Ru, забирай!