PrimaNota.ru - самый крупный в мире бесплатный архив песенных текстов, аккордов, табулатур и нот


Helix - Make Me Do Anything You Want - текст песни, таба, бас-таба, видео

Регистрация Запомнить меня
Войти через:  Facebook Google Twitter Vk Yandex Mail.ru

Helix - Make Me Do Anything You Want - текст песни, таба, бас-таба, видео

Печатать
Просмотров: 159
-----------------------------------------------------------------------------
                                  
             (Make Me Do) Anything You Want  - Helix (GUITAR)
            
-----------------------------------------------------------------------------
Tabbed by: Scotto10

Tuning: Tune down one half step

=============================================================================

                                                                                    
Guitar 1



      Q.     H        E     Q.     H        E     Q.     H        E   
D#||---------------------|---------------------|---------------------|
A#||--3------3--------L--|--3------3--------L--|--3------3--------L--|
F#||---------------------|---------------------|--2------2--------L--|
C#||--0------0--------L--|--2------2--------L--|---------------------|
G#||---------------------|---------------------|---------------------|
D#||---------------------|---------------------|---------------------|


  Q.     Q.     E   E     Q.     H        E     Q.     H        E   
-----------------------|---------------------|---------------------|
--3------3------2h--3--|--3------3--------L--|--3------3--------L--|
--0------0------L------|---------------------|---------------------|
-----------------------|--0------0--------L--|--2------2--------L--|
-----------------------|---------------------|---------------------|
-----------------------|---------------------|---------------------|


  Q.     H        E     Q.     Q.     E   E     Q    S H        S E   
---------------------|-----------------------|---------2----------0--|
--3------3--------L--|--3------3------2h--3--|------------------3----|
--2------2--------L--|--0------0-------------|-----------------------|
---------------------|-----------------------|--0----L-L--------0----|
---------------------|-----------------------|-----------------------|
---------------------|-----------------------|-----------------------|


  Q    H.              Q.     H        E     Q.     H        E   
--L----2------------|---------------------|---------------------|
-------3------------|--3------3--------L--|--3------3--------L--|
--------------------|---------------------|---------------------|
--L-----------------|--0------0--------L--|--2------2--------L--|
--------------------|---------------------|---------------------|
--------------------|---------------------|---------------------|


  Q.     H        E     Q.     Q.     E   E     Q.     S Q.     S E   
---------------------|-----------------------|-----------2------L----|
--3------3--------L--|--3------3------2s--3--|-----------3------L-L--|
--2------2--------L--|--0------0------L------|-----------------------|
---------------------|-----------------------|--0------L-L--------0--|
---------------------|-----------------------|-----------------------|
---------------------|-----------------------|-----------------------|


  Q.     H        E     Q.     H        E     Q.     H        E   
--0------2--------L--|---------------------|---------------------|
--3------3--------L--|--3------2--------L--|--0------------------|
---------------------|--2------2--------L--|--0------2--------L--|
--L------L-----------|---------------------|---------4--------L--|
---------------------|---------------------|---------------------|
---------------------|---------------------|---------------------|


  Q.     H        E     Q.     H        E     Q.     H        E   
--3------2--------L--|--0------2--------L--|---------------------|
---------------------|---------------------|--3------2--------L--|
---------------------|---------------------|--2------2--------L--|
--0------0--------L--|--0------0--------L--|---------------------|
---------------------|---------------------|---------------------|
---------------------|---------------------|---------------------|


  Q.     H        E     Q.     H        E     Q.     H        E   
---------------------|--3------2--------L--|--0------2--------L--|
--0------------------|---------------------|---------------------|
--0------2--------L--|---------------------|---------------------|
---------4--------L--|--0------0--------L--|--0------0--------L--|
---------------------|---------------------|---------------------|
---------------------|---------------------|---------------------|


  Q.     H        E     Q.     H        E     Q.     H        E   
---------------------|---------------------|---------------------|
--3------3--------L--|--3------3--------L--|--3------3--------L--|
---------------------|---------------------|--2------2--------L--|
--0------0--------L--|--2------2--------L--|---------------------|
---------------------|---------------------|---------------------|
---------------------|---------------------|---------------------|


  Q.     Q.     E   E     Q.     H        E     Q.     H        E   
-----------------------|---------------------|---------------------|
--3------3------2h--3--|--3------3--------L--|--3------3--------L--|
--0------0------L------|---------------------|---------------------|
-----------------------|--0------0--------L--|--2------2--------L--|
-----------------------|---------------------|---------------------|
-----------------------|---------------------|---------------------|


  Q.     H        E     Q.     Q.     E   E     Q.     H        E   
---------------------|-----------------------|---------------------|
--3------3--------L--|--3------3------2h--3--|--3------2--------L--|
--2------2--------L--|--0------0-------------|--2------2--------L--|
---------------------|-----------------------|---------------------|
---------------------|-----------------------|---------------------|
---------------------|-----------------------|---------------------|


  Q.     H        E     Q.     H        E     Q.     H        E   
---------------------|--3------2--------L--|--0------2--------L--|
--0------------------|---------------------|---------------------|
--0------2--------L--|---------------------|---------------------|
---------4--------L--|--0------0--------L--|--0------0--------L--|
---------------------|---------------------|---------------------|
---------------------|---------------------|---------------------|


  Q.     H        E     Q.     H        E     Q.     H        E   
---------------------|---------------------|--3------2--------L--|
--3------2--------L--|--0------------------|---------------------|
--2------2--------L--|--0------2--------L--|---------------------|
---------------------|---------4--------L--|--0------0--------L--|
---------------------|---------------------|---------------------|
---------------------|---------------------|---------------------|


  Q.     H        E     Q.     H        E     Q.     H        E   
--0------2--------L--|---------------------|---------------------|
---------------------|--3------2--------L--|--0------------------|
---------------------|--2------2--------L--|--0------2--------L--|
--0------0--------L--|---------------------|---------4--------L--|
---------------------|---------------------|---------------------|
---------------------|---------------------|---------------------|


  Q.     H        E     Q.     H        E     Q    E  E  E  E  E  E   
--3------2--------L--|--0------2--------L--|-------------------------|
---------------------|---------------------|-------------------------|
---------------------|---------------------|-------------------2--4--|
--0------0--------L--|--0------0--------L--|----------2--4--5--------|
---------------------|---------------------|-------5-----------------|
---------------------|---------------------|-------------------------|


  E  E  E  E  E  E  E  E     E  E  E  E  E  E  E  E   
--------------------------|--------------------5--7--|
-----1-----1-----1-----1--|-----------5--7--8--------|
--3-----3-----3-----3-----|--------7-----------2--4--|
--------------------------|-----------2--4--5--------|
--------------------------|--------5-----------------|
--------------------------|--------------------------|


  E  E  E  E  E  E  E  E      W                     H.             Q        
--6--8--6--8--6--8--6--8--|---------------------|--------------------------|
-----1-----1-----1-----1--|---8-----------------|--10-------------12pbr----|
--3-----3-----3-----3-----|--10b----------------|--12b---------------------|
--------------------------|---------------------|--------------------------|
--------------------------|---------------------|--------------------------|
--------------------------|---------------------|--------------------------|


   H.            E  E      Q      Q      Q      E    E      W                  
-----------------------|--10-----10-----10-----10--------|--------------------|
--10------------10-----|--13b----13b----13b----13b---L\--|--------------------|
-----------------------|---------------------------------|--9b----------------|
-----------------------|---------------------------------|--------------------|
-----------------------|---------------------------------|--------------------|
-----------------------|---------------------------------|--------------------|


                    |--3--|                                       
  E    E  E   E  E  S  S  S E  E     S E    Q     S  Q.     S  S  
----------------------------------|------------------------------|
-------7--8--10--8--7h-8p-7-------|------------------------------|
--Lpb-----------------------9--7--|--9-Ls--11-----L\-------------|
----------------------------------|------------------7------7h-9-|
----------------------------------|------------------------------|
----------------------------------|------------------------------|


                              PM PM PM PM                                   
  H.           E  E      Q    S  S  S  S  Q     E   E     W                 
----------------------|--------------------------------|-------------------|
----------------------|--------------------------------|-------------------|
----------------------|-------------------9b----9b--9--|--L----------------|
--7------------L--L\--|-------------7------------------|-------------------|
----------------------|-------7h-9-----x---------------|-------------------|
----------------------|--------------------------------|-------------------|


                      |---3--|     |--3--|  |--3--|               
  E   H          E    E  E   E     E  E  E  E  E  E  Q.      E    
--------------------------------|--------------------------------|
-----10b---------Lpb-----8--10--|--7--8-----7--------------------|
--------------------------------|--------9-----7--9--------------|
--------------------------------|--------------------7~------L\--|
--------------------------------|--------------------------------|
--------------------------------|--------------------------------|


                                    |---3--|                  
  Q    E   E  E  E  E  E     E   E  S   S  S E  Q     E.  S   
--------------------------|----------------------------------|
--------------------------|-----10--8h-10p-8-7--8----10---8b-|
--------------------6--7--|--9-------------------------------|
--------------7--9--------|----------------------------------|
-------9--10--------------|----------------------------------|
--------------------------|----------------------------------|


  H.            E    E     S  S H.           E    
------------------------|------------------------|
--8b------------Lpb--7--|--8p-7------------------|
------------------------|------------------------|
------------------------|-------7------------L\--|
------------------------|------------------------|
------------------------|------------------------|


  Q      E   E   Q      E.    S     H.            E   E    
--------------------------------|-------------------------|
------------15--17b----17b---17-|---L-------------L---L\--|
-------/16----------------------|-------------------------|
-------/16----------------------|-------------------------|
--------------------------------|-------------------------|
--------------------------------|-------------------------|


  Q      E   E   E    S   S  E   E       Q.      S   S  Q     Q      
-------------------------------------|------------------------------|
------------15--17b--17p-15-17--17b--|--17--------------------------|
-------/16---------------------------|----------14h-16-14-----L\----|
-------/16---------------------------|------------------------------|
-------------------------------------|------------------------------|
-------------------------------------|------------------------------|


  Q     E    H         E     Q     E    H         E   
--------------------------|--------------------------|
--------------------------|--------------------------|
-------14b--14---------L--|-------16b--16---------L--|
--------------------------|--------------------------|
--------------------------|--------------------------|
--------------------------|--------------------------|


                             two guitars                       
  Q     E    H         E     Q            E    Q.      E   E   
--------------------------|--------------15b--15------15--14--|
-------15b--15---------L--|--------------17b--17------17--15--|
--------------------------|-----------------------------------|
--------------------------|-----------------------------------|
--------------------------|-----------------------------------|
--------------------------|-----------------------------------|


   W                    W                    W                       
---L----------------|---L----------------|---L----------------|-----|
---L----------------|---L----------------|---L----------------|-----|
--------------------|--------------------|--------------------|-----|
--------------------|--------------------|--------------------|-----|
--------------------|--------------------|--------------------|-----|
--------------------|--------------------|--------------------|-----|


  Q.     H        E     Q.     H        E     Q.     H        E   
---------------------|---------------------|--3------2--------L--|
--3------2--------L--|--0------------------|---------------------|
--2------2--------L--|--0------2--------L--|---------------------|
---------------------|---------4--------L--|--0------0--------L--|
---------------------|---------------------|---------------------|
---------------------|---------------------|---------------------|


  Q.     H        E     Q.     H        E     Q.     H        E   
--0------2--------L--|---------------------|---------------------|
---------------------|--3------2--------L--|--0------------------|
---------------------|--2------2--------L--|--0------2--------L--|
--0------0--------L--|---------------------|---------4--------L--|
---------------------|---------------------|---------------------|
---------------------|---------------------|---------------------|


  Q.     H        E     Q.     H        E      Q.       H          E     
--3------2--------L--|--0------2--------L--|--10--------9----------L----|
---------------------|---------------------|--13b------12b---------Lpb--|
---------------------|---------------------|----------------------------|
--0------0--------L--|--0------0--------L--|----------------------------|
---------------------|---------------------|----------------------------|
---------------------|---------------------|----------------------------|


   Q.      H         E        Q.      H          E     
---7-------5---------L----|---------------------------|
--10b------8b--------Lpb--|---8-------7----------L----|
--------------------------|--10b------9b---------Lpb--|
--------------------------|---------------------------|
--------------------------|---------------------------|
--------------------------|---------------------------|


  Q.      H         E        Q.      H         E      Q.      H         E   
-------------------------|----------17---------L--|--15------14---------L--|
--5-------3---------L----|--15--------------------|------------------------|
--7b------5b--------Lpb--|------------------------|------------------------|
-------------------------|------------------------|------------------------|
-------------------------|------------------------|------------------------|
-------------------------|------------------------|------------------------|


                              two guitars               
   W                          Q.          H         E   
--------------------|-----|--17-----------L---------L--|
--15----------------|-----|--19-----------L---------L--|
--------------------|-----|----------------------------|
--------------------|-----|----------------------------|
--------------------|-----|----------------------------|
--------------------|-----|----------------------------|


   Q.      H         E      W                       
--15------14---------L--|--------------------|-----|
--17------15---------L--|--15----------------|-----|
------------------------|--------------------|-----|
------------------------|--------------------|-----|
------------------------|--------------------|-----|
------------------------|--------------------|-----|


   two guitars                                                             
   Q.          H         E      Q.      H         E      W                 
--17-----------L---------L--|--15------14---------L--|--------------------|
--19-----------L---------L--|--17------15---------L--|--15----------------|
----------------------------|------------------------|--------------------|
----------------------------|------------------------|--------------------|
----------------------------|------------------------|--------------------|
----------------------------|------------------------|--------------------|


-----||
-----||
-----||
-----||
-----||
-----||




=============================================================================
=============================================================================


Guitar 2



D#||-------|-------|-------|-------|-------|-------|-------|-------|-------|
A#||-------|-------|-------|-------|-------|-------|-------|-------|-------|
F#||-------|-------|-------|-------|-------|-------|-------|-------|-------|
C#||-------|-------|-------|-------|-------|-------|-------|-------|-------|
G#||-------|-------|-------|-------|-------|-------|-------|-------|-------|
D#||-------|-------|-------|-------|-------|-------|-------|-------|-------|


-------|-------|-------|-------|-------|-------|-------|-------|-------|-------|
-------|-------|-------|-------|-------|-------|-------|-------|-------|-------|
-------|-------|-------|-------|-------|-------|-------|-------|-------|-------|
-------|-------|-------|-------|-------|-------|-------|-------|-------|-------|
-------|-------|-------|-------|-------|-------|-------|-------|-------|-------|
-------|-------|-------|-------|-------|-------|-------|-------|-------|-------|


-------|-------|-------|-------|-------|-------|-------|-------|-------|-------|
-------|-------|-------|-------|-------|-------|-------|-------|-------|-------|
-------|-------|-------|-------|-------|-------|-------|-------|-------|-------|
-------|-------|-------|-------|-------|-------|-------|-------|-------|-------|
-------|-------|-------|-------|-------|-------|-------|-------|-------|-------|
-------|-------|-------|-------|-------|-------|-------|-------|-------|-------|


-------|-------|-------|-------|-------|-------|-------|-------|-------|-------|
-------|-------|-------|-------|-------|-------|-------|-------|-------|-------|
-------|-------|-------|-------|-------|-------|-------|-------|-------|-------|
-------|-------|-------|-------|-------|-------|-------|-------|-------|-------|
-------|-------|-------|-------|-------|-------|-------|-------|-------|-------|
-------|-------|-------|-------|-------|-------|-------|-------|-------|-------|


                                  H.           E  S S    W                 
-------|-------|-------|-------|------------------2-2-|--2----------------|
-------|-------|-------|-------|------------------3-3-|--3----------------|
-------|-------|-------|-------|------------------2-2-|--2----------------|
-------|-------|-------|-------|------------------0-0-|--0----------------|
-------|-------|-------|-------|----------------------|-------------------|
-------|-------|-------|-------|----------------------|-------------------|


  H.           E  S S    W                   W                 
------------------2-2-|--2----------------|-------------------|
--8------------L--3-3-|--3----------------|--8----------------|
--8------------L--2-2-|--2----------------|--8----------------|
--8------------L--0-0-|--0----------------|--8----------------|
--6------------L------|-------------------|--6----------------|
----------------------|-------------------|-------------------|


  W                   W                   W                 
-------------------|-------------------|-------------------|
-------------------|-------------------|-------------------|
-------------------|-------------------|-------------------|
-------------------|-------------------|--2----------------|
--5----------------|--3----------------|--0----------------|
--3----------------|--1----------------|-------------------|


                                PM PM    PM PM PM PM  
  E  E  E  E  E  E  E  E     E  E  E  E  E  E  E  E   
--------------------------|--------------------------|
--------------------------|--------------------------|
--------------------------|--------------------------|
--------------------------|--7--------7--------------|
--5--5--3--3--2--2--0--0--|--5--5--5--5--5--5--5--5--|
--------------------------|--------------------------|


     PM PM    PM PM PM PM        PM PM     PM PM PM PM  
  E  E  E  E  E  E  E  E      E  E  E   E  E  E  E  E   
--------------------------|----------------------------|
--------------------------|----------------------------|
--------------------------|----------------------------|
--9--------9--------------|--11--------11--------------|
--7--7--7--7--7--7--7--7--|---9--9--9---9--9--9--9--9--|
--------------------------|----------------------------|


       PM  PM      PM  PM  PM  PM       PM PM    PM PM PM PM  
   E   E   E   E   E   E   E   E     E  E  E  E  E  E  E  E   
----------------------------------|--------------------------|
----------------------------------|--------------------------|
----------------------------------|--------------------------|
--12----------12------------------|--7--------7--------------|
--10--10--10--10--10--10--10--10--|--5--5--5--5--5--5--5--5--|
----------------------------------|--------------------------|


     PM PM    PM PM PM PM        PM PM     PM PM PM PM  
  E  E  E  E  E  E  E  E      E  E  E   E  E  E  E  E   
--------------------------|----------------------------|
--------------------------|----------------------------|
--------------------------|----------------------------|
--9--------9--------------|--11--------11--------------|
--7--7--7--7--7--7--7--7--|---9--9--9---9--9--9--9--9--|
--------------------------|----------------------------|


       PM  PM      PM  PM  PM  PM       PM PM    PM PM PM PM  
   E   E   E   E   E   E   E   E     E  E  E  E  E  E  E  E   
----------------------------------|--------------------------|
----------------------------------|--------------------------|
----------------------------------|--------------------------|
--12----------12------------------|--7--------7--------------|
--10--10--10--10--10--10--10--10--|--5--5--5--5--5--5--5--5--|
----------------------------------|--------------------------|


     PM PM    PM PM PM PM        PM PM     PM PM PM PM  
  E  E  E  E  E  E  E  E      E  E  E   E  E  E  E  E   
--------------------------|----------------------------|
--------------------------|----------------------------|
--------------------------|----------------------------|
--9--------9--------------|--11--------11--------------|
--7--7--7--7--7--7--7--7--|---9--9--9---9--9--9--9--9--|
--------------------------|----------------------------|


       PM  PM      PM  PM  PM  PM       PM PM    PM PM PM PM  
   E   E   E   E   E   E   E   E     E  E  E  E  E  E  E  E   
----------------------------------|--------------------------|
----------------------------------|--------------------------|
----------------------------------|--------------------------|
--12----------12------------------|--7--------7--------------|
--10--10--10--10--10--10--10--10--|--5--5--5--5--5--5--5--5--|
----------------------------------|--------------------------|


     PM PM    PM PM PM PM        PM PM     PM PM PM PM  
  E  E  E  E  E  E  E  E      E  E  E   E  E  E  E  E   
--------------------------|----------------------------|
--------------------------|----------------------------|
--------------------------|----------------------------|
--9--------9--------------|--11--------11--------------|
--7--7--7--7--7--7--7--7--|---9--9--9---9--9--9--9--9--|
--------------------------|----------------------------|


       PM  PM      PM  PM  PM  PM                                              
   E   E   E   E   E   E   E   E     Q.     H        E     Q.     H        E   
----------------------------------|---------------------|---------------------|
----------------------------------|---------------------|---------------------|
----------------------------------|---------------------|---------------------|
--12----------12------------------|--7------7-----------|--9------9-----------|
--10--10--10--10--10--10--10--10--|--5------5-----------|--7------7-----------|
----------------------------------|---------------------|---------------------|


   Q.      H        E      Q.      H        E                           
-----------------------|-----------------------|-----|-----|-----|-----|
-----------------------|-----------------------|-----|-----|-----|-----|
-----------------------|-----------------------|-----|-----|-----|-----|
--11------11-----------|--12------12-----------|-----|-----|-----|-----|
---9-------9-----------|--10------10-----------|-----|-----|-----|-----|
-----------------------|-----------------------|-----|-----|-----|-----|


  W                   W                   Q.     H        E   
-------------------|-------------------|--3------2--------L--|
--3----------------|--L----------------|--3------3--------L--|
--2----------------|--L----------------|--2------2--------L--|
--0----------------|--L----------------|--0------0--------L--|
--0----------------|--L----------------|---------------------|
-------------------|-------------------|---------------------|


  Q.     H        E     W                   W                 
--0------2--------L--|-------------------|-------------------|
--3------3--------L--|--3----------------|--L----------------|
--2------2--------L--|--2----------------|--L----------------|
--0------0--------L--|--0----------------|--L----------------|
---------------------|--0----------------|--L----------------|
---------------------|-------------------|-------------------|


  Q.     H        E     Q.     H        E     W                 
--3------2--------L--|--0------2--------L--|-------------------|
--3------3--------L--|--3------3--------L--|--3----------------|
--2------2--------L--|--2------2--------L--|--2----------------|
--0------0--------L--|--0------0--------L--|--0----------------|
---------------------|---------------------|--0----------------|
---------------------|---------------------|-------------------|


  W                   Q.     H        E     Q.     H        E   
-------------------|--3------2--------L--|--0------2--------L--|
--L----------------|--3------3--------L--|--3------3--------L--|
--L----------------|--2------2--------L--|--2------2--------L--|
--L----------------|--0------0--------L--|--0------0--------L--|
--L----------------|---------------------|---------------------|
-------------------|---------------------|---------------------|


  W                   W                   Q.     H        E   
-------------------|-------------------|--3------2--------L--|
--3----------------|--L----------------|--3------3--------L--|
--2----------------|--L----------------|--2------2--------L--|
--0----------------|--L----------------|--0------0--------L--|
--0----------------|--L----------------|---------------------|
-------------------|-------------------|---------------------|


  Q.     H        E     W                   W                 
--0------2--------L--|-------------------|-------------------|
--3------3--------L--|--3----------------|--L----------------|
--2------2--------L--|--2----------------|--L----------------|
--0------0--------L--|--0----------------|--L----------------|
---------------------|--0----------------|--L----------------|
---------------------|-------------------|-------------------|


  Q.     H        E     Q.     H        E     W                 
--3------2--------L--|--0------2--------L--|-------------------|
--3------3--------L--|--3------3--------L--|--3----------------|
--2------2--------L--|--2------2--------L--|--2----------------|
--0------0--------L--|--0------0--------L--|--0----------------|
---------------------|---------------------|--0----------------|
---------------------|---------------------|-------------------|


  W                   Q.     H        E     Q.     H        E    
-------------------|--3------2--------L--|--0------2--------L--||
--L----------------|--3------3--------L--|--3------3--------L--||
--L----------------|--2------2--------L--|--2------2--------L--||
--L----------------|--0------0--------L--|--0------0--------L--||
--L----------------|---------------------|---------------------||
-------------------|---------------------|---------------------||




Duration Legend
---------------
W - whole
H - half
Q - quarter
E - 8th
S - 16th
T - 32nd
X - 64th
. - note dotted
|-n-|  - n-tuplets


Tablature Legend
----------------
L - tied note
x - dead note
g - grace note
(n) - ghost note
> - accentuded note
NH - natural harmonic
AH - artificial harmonic
TH - tapped harmonic
SH - semi harmonic
PH - pitch harmonic
h - hammer on
p - pull off
b - bend
br - bendRelease
pb - preBend
pbr - preBendRelease
brb - bendReleaseBend
\n/ - tremolo bar dip
\n - tremolo bar dive
-/n - tremolo bar Release up
/n\ - tremolo bar inverted dip
/n - tremolo bar return
-\n - tremolo bar Release down
S - shift slide
s - legato slide
/ -  slide into from below or out of upwards
\ -  slide into from above or out of downwards
~ - vibrato
W - wide vibrato
tr - trill
TP - tremolo picking
T - tapping
S - slap
P - pop
< - fade in
^ - brush up
v - brush down
Добавлено: 28.06.2012
Другие материалы по этой песне:

Страница создана 28.02.2012
http://primanota.ru/helix/make-me-do-anything-you-want-chords.htm
Привет, Гость.
Предлагаем пройти революционный курс по гитаре.
Подарок от PrimaNota.Ru, забирай!