PrimaNota.ru - самый крупный в мире бесплатный архив песенных текстов, аккордов, табулатур и нот


The Helix Nebula - Crystal Plains - таба, видео

Регистрация Запомнить меня
Войти через:  Facebook Google Twitter Vk Yandex Mail.ru

The Helix Nebula - Crystal Plains - таба, видео

Печатать
Просмотров: 158
Уроки эстрадного вокала в Санкт-Петербурге
-------------------------------------------------------------------------------
                             The Crystal Plains-The Helix Nebula
-------------------------------------------------------------------------------
Tabbed by:Kyle Spengler
E-mail:

Tuning:dadgbe

e|-------------------------------------------------------------------------------------|
B|14-------------------14----------------14-----------------------------17-------------|
G|-------------13-------------------13--------------13----16---------------------------|
D|--------16--------------------16---------------16----------------19------------------|
A|----12--------------------12---------------12----------------15----------------------|
D|12----------------12-------------------12---------------15---------------------------|

e|--------------------------------------------------------------------------------------|
B|---------------17-------------17--------------------16------------------16------------|
G|----16--------------16-------------16----------17----------------18-----------------1-|
D|-----------19--------------19--------------19----------------19-----------------19----|
A|-------15--------------15--------------15----------------16-----------------16--------|
D|-15-----------------15-------------15---------------16---------------16---------------|

e|---------------------------------------------------------------------------------|
B|-16--------------16--------------------------------------------------------------|
G|-------------18--------------18--------------------------------------------------|
D|---------19--------------19------------------------------------------------------|
A|-----16--------------16----------------------------------------------------------|
E|-16--------------16--------------------------------------------------------------|

************************************

| /   slide up
| \   slide down
| h   hammer-on
| p   pull-off
| ~   vibrato
| +   harmonic
| x   Mute note
| b   Bend
| pb  Pre-bend
| br  Bend release
| pbr Pre-bend release
| brb Bend release bend

************************************
Добавлено: 03.12.2015
Другие материалы по этой песне:

Страница создана 03.12.2015
http://primanota.ru/helix-nebula/crystal-plains-chords.htm
Привет, Гость.
Предлагаем пройти революционный курс по гитаре.
Подарок от PrimaNota.Ru, забирай!