PrimaNota.ru - самый крупный в мире бесплатный архив песенных текстов, аккордов, табулатур и нот


Helia - Alejandro - текст песни, таба, видео

Регистрация Запомнить меня
Войти через:  Facebook Google Twitter Vk Yandex Mail.ru

Helia - Alejandro - текст песни, таба, видео

Печатать
Просмотров: 256
Авторы музыки: Lady Gaga, RedOne
Авторы текста: Lady Gaga, RedOne
-------------------------------------------------------------------------------
                             ALEJANDRO - Helia
-------------------------------------------------------------------------------

Tabbed by: UmbilicalChord9

Tuning: Drop B

Aight, did this all by ear and somewhat by watching the music video. If you see 
any problems, please leave a comment and let me know.
Enjoy!!


************************************

| /   slide up
| \   slide down
| h   hammer-on
| p   pull-off
| ~   vibrato
| +   harmonic
| x   Mute note
| b   Bend
| pb  Pre-bend
| br  Bend release
| pbr Pre-bend release
| brb Bend release bend

************************************


Intro
|---------------------------------------------------------------------------|
|---------------------------------------------------------------------------|
|---------------------------------------------------------------------------|
|-0-0-0-0-0-0-0-0-3-3-3-3-3-3-3-3-7-7-7-7-7-7-7-7-7-7-7-7-7-7-7-7-----------|
|-0-0-0-0-0-0-0-0-3-3-3-3-3-3-3-3-7-7-7-7-7-7-7-7-7-7-7-7-7-7-7-7-----------|
|-0-0-0-0-0-0-0-0-3-3-3-3-3-3-3-3-7-7-7-7-7-7-7-7-7-7-7-7-7-7-7-7-----------| x2


Verse 1
|---------------------------------------------------------------------------|
|---------------------------------------------------------------------------|
|---------------------------------------------------------------------------|
|---------------------------------------------------------------------------|
|-0-0-0-8-0-0-0-0-0-0-0-------0-0-0-0-0-0-8-0-0-0-7-7-7-7-7-7-7-7-----------|
|-0-0-0---0-0-0-0-0-0-0-------0-0-0-0-0-0---0-0-0-7-7-7-7-7-7-7-7-----------| x3

|---------------------------------------------------------------------------|
|---------------------------------------------------------------------------|
|---------------------------------------------------------------------------|
|---------------------------------------------------------------------------|
|-0-0-0-8-0-0-0-0-0-0-0-------0-0-0-0-0-0-8-0-0-0-7-7-7-7-7-7-7-7-----------|
|-0-0-0---0-0-0-0-0-0-0-0-0-0-0-0-0-0-0-0---0-0-0-7-7-7-7-7-7-7-7-----------|


Pre-Chorus
|---------------------------------------------------------------------------|
|---------------------------------------------------------------------------|
|---------------------------------------------------------------------------|
|---------------------------------------------7-------7---------------------|
|-0-0-0-0-0-0-0-0-3-3-3-------7-7-7-7-7-7-7-7-7-7-7-7-7-7-7-7---------------|
|-0-0-0-0-0-0-0-0-3-3-3-------7-7-7-7-7-7-7-7-7-7-7-7-7-7-7-7---------------|
pm---------------------       ---------------   -----   -----

|---------------------------------------------------------------------------|
|---------------------------------------------------------------------------|
|---------------------------------------------------------------------------|
|-----------------------------------------7---------------------------------|
|-0-0-0-0-0-0-0-0-3-3-3-------7-7-7-7-7-7-7---------------------------------|
|-0-0-0-0-0-0-0-0-3-3-3-------7-7-7-7-7-7-7---------------------------------|
pm---------------------       -----------


Chorus 1
|---------------------------------------------------------------------------|
|---------------------------------------------------------------------------|
|-3-3-3-3-3-3-3-3-----------------5-5-5-5-5-5-5-5---------------------------|
|-3-3-3-3-3-3-3-3-3-3-3-3-3-3-3-3-5-5-5-5-5-5-5-5-0-0-0-0-0-0-0-0-----------|
|-1-1-1-1-1-1-1-1-3-3-3-3-3-3-3-3-3-3-3-3-3-3-3-3-0-0-0-0-0-0-0-0-----------|
|-----------------3-3-3-3-3-3-3-3-----------------0-0-0-0-0-0-0-0-----------| x6


Verse 2
|---------------------------------------------------------------------------|
|---------------------------------------------------------------------------|
|---------------------------------------------------------------------------|
|---------------------------------------------------------------------------|
|-0-0-0-8-0-0-0-0-0-0-0-------0-0-0-0-0-0-8-0-0-0-7-7-7-7-7-7-7-7-----------|
|-0-0-0---0-0-0-0-0-0-0-------0-0-0-0-0-0---0-0-0-7-7-7-7-7-7-7-7-----------|

|---------------------------------------------------------------------------|
|---------------------------------------------------------------------------|
|---------------------------------------------------------------------------|
|---------------------------------------------------------------------------|
|-0-0-0-8-0-0-0-0-0-0-0-------0-0-0-0-0-0-8-0-0-0-7-7-7-7-7-7-7-7-----------|
|-0-0-0---0-0-0-0-0-0-0-0-0-0-0-0-0-0-0-0---0-0-0-7-7-7-7-7-7-7-7-----------|

|---------------------------------------------------------------------------|
|---------------------------------------------------------------------------|
|---------------------------------------------------------------------------|
|---------------------------------------------------------------------------|
|-0-0-0-8-0-0-0-0-0-0-0-------0-0-0-0-0-0-8-0-0-0-7-7-7-7-7-7-7-7-----------|
|-0-0-0---0-0-0-0-0-0-0-------0-0-0-0-0-0---0-0-0-7-7-7-7-7-7-7-7-----------| x2


Pre-Chorus
|---------------------------------------------------------------------------|
|---------------------------------------------------------------------------|
|---------------------------------------------------------------------------|
|---------------------------------------------7-------7---------------------|
|-0-0-0-0-0-0-0-0-3-3-3-------7-7-7-7-7-7-7-7-7-7-7-7-7-7-7-7---------------|
|-0-0-0-0-0-0-0-0-3-3-3-------7-7-7-7-7-7-7-7-7-7-7-7-7-7-7-7---------------|
pm---------------------       ---------------   -----   -----

|---------------------------------------------------------------------------|
|---------------------------------------------------------------------------|
|---------------------------------------------------------------------------|
|-----------------------------------------7---------------------------------|
|-0-0-0-0-0-0-0-0-3-3-3-------7-7-7-7-7-7-7---------------------------------|
|-0-0-0-0-0-0-0-0-3-3-3-------7-7-7-7-7-7-7---------------------------------|
pm---------------------       -----------


Chorus 2
|---------------------------------------------------------------------------|
|---------------------------------------------------------------------------|
|-3-3-3-3-3-3-3-3-----------------5-5-5-5-5-5-5-5---------------------------|
|-3-3-3-3-3-3-3-3-3-3-3-3-3-3-3-3-5-5-5-5-5-5-5-5-0-0-0-0-0-0-0-0-----------|
|-1-1-1-1-1-1-1-1-3-3-3-3-3-3-3-3-3-3-3-3-3-3-3-3-0-0-0-0-0-0-0-0-----------|
|-----------------3-3-3-3-3-3-3-3-----------------0-0-0-0-0-0-0-0-----------| x8


Bridge
|---------------------------------------------------------------------------|
|---------------------------------------------------------------------------|
|---------------------------------------------------------------------------|
|---------------------------------------------------------------------------|
|-0000-0-0-0-00--0000-0-0-0-00-0-00------0000-0-0-0-00--0000-0-0-0-00-------|
|-0000-0-0-0-00--0000-0-0-0-00-0-00------0000-0-0-0-00--0000-0-0-0-00-8b----|
pm-------------  --------   --   --      -------------  --------   --

|---------------------------------------------------------------------------|
|---------------------------------------------------------------------------|
|---------------------------------------------------------------------------|
|---------------------------------------------------------------------------|
|-0000-0-0-0-00--0000-0-0-0------0000-0-0-0-00--0000-0-0--------------------|
|-0000-0-0-0-00--0000-0-0-0------1111-1-1-1-11--1111-1-1-0-00-0-00----------|
pm-------------  ----------      -------------  --------   --   --


Chorus 3
|---------------------------------------------------------------------------|
|---------------------------------------------------------------------------|
|-3-3-3-3-3-3-3-3-----------------5-5-5-5-5-5-5-5---------------------------|
|-3-3-3-3-3-3-3-3-3-3-3-3-3-3-3-3-5-5-5-5-5-5-5-5-0-0-0-0-0-0-0-0-----------|
|-1-1-1-1-1-1-1-1-3-3-3-3-3-3-3-3-3-3-3-3-3-3-3-3-0-0-0-0-0-0-0-0-----------|
|-----------------3-3-3-3-3-3-3-3-----------------0-0-0-0-0-0-0-0-----------| x4

|---------------------------------------------------------------------------|
|---------------------------------------------------------------------------|
|-3-3-3-3-3-3-3-3-----------------5-5-5-5-5-5-5-5-7-7-7-7-7-7-7-7-----------|
|-3-3-3-3-3-3-3-3-3-3-3-3-3-3-3-3-5-5-5-5-5-5-5-5-7-7-7-7-7-7-7-7-----------|
|-1-1-1-1-1-1-1-1-3-3-3-3-3-3-3-3-3-3-3-3-3-3-3-3-5-5-5-5-5-5-5-5-----------|
|-----------------3-3-3-3-3-3-3-3-------------------------------------------| x2
Добавлено: 30.04.2012
Другие материалы по этой песне:

Страница создана 08.03.2012
http://primanota.ru/helia/alejandro-chords.htm
Привет, Гость.
Предлагаем пройти революционный курс по гитаре.
Подарок от PrimaNota.Ru, забирай!